Аккорды Детидетей - Холодильник

Добавлено: @romashka
Дата добавления: 26 Января 2018г.
Рейтинг:
0.0
Просмотров: 296
Транспонировать - +
Dm Dm/B 
Лампочки на проводе все потухли вроде бы, 
Dm Dm/B 
Ёлка осыпается, засыпает дом, 
B G 
В нашем белом городе да в морозе-холоде 
Dm B C Dm B 1 - A 
Время потеряется под моим окном. 

Вот бы все дороги да свернулись змейками, 
Чтобы время это не смогло уйти, 
Вот бы циферблаты да своими стрелками 
Время под окном моим не смогли найти. 

Dm 1 B 2 
В моей грудной клетке часы и минуты 
G B C 
Оставили множество маленьких дыр 
 
Dm 
Для мира ты кто-то, 
Dm/B 
Для мира ты кто-то, 
Dm 
Для мира ты кто-то, 
Dm/B B 1 - A 
А для кого-то ты мир. 

Я сижу и кушаю, холодильник слушаю, 
Проспала нечаянно, и ушло оно, 
Не найдя дороги в нашем белом городе, 
Время улетело крыльями задев окно. 

Dm Gm 
И куда ни попадя взгляд мой утыкается, 
Dm Gm 
И куда глаза глядят не хочется идти, 
B Gm 
На далёком облаке время улыбается 
B G 
И смеётся тихо, не слышно почти. 

В моей грудной клетке часы и минуты 
Оставили множество маленьких дыр 

Для мира ты кто-то, 
Для мира ты кто-то, 
Для мира ты кто-то, 
А для кого-то ты мир. 

Dm Dm/B 
E-----0-1-------0-1---- 
B---3---------3-------- 
G--2-2-2-2---2-2-2-2--- 
D-0-------------------- 
A-----------1---------- 
E---------------------- 

B 1 - A 
E-----1---------0---------0---------0------ 
B---3---3-----3---3-----3---3-----2---2---- 
G--3-3-3-3---3-3-3-3---3-3-3-3---2-2-2-2--- 
D-3---------------------------------------- 
A-----------0-------------------0---------- 
E---------------------3-------------------- 

  Dm 1         B 2 
E-------- E--------- 
B---3---- B----3---- 
G---2---- G----3---- 
D-------- D----3---- 
A-------- A--------- 
E-------- E--------- 
Наверх