Аккорды Disturbed - Uninvited Guest

Добавлено: @romashka
Дата добавления: 24 Июня 2022г.
Рейтинг:
0.0
Просмотров: 101
Транспонировать - +
[Intro and Verse]

D|-----------------------------|--------------------0------|
A|--1p0-----------0------------|--1--------3---------------|
F|-------2-----------2---------|-----0--------0------------|
C|----------2-----------2------|--------2--------2---------|
G|--0--------------------------|--3------------------------|
D|-----------------------------|---------------------------|

D|--3--------------------------|--------------3------------|
A|-----------3-----------------|--------------------1------|
F|--------------------0--------|--0--------------0-----0---|
C|-----------------0-----------|--------0------------------|
G|--------2--------------------|-----2-----2---------------|
D|--3--------------------------|---------------------------|
[Verse 1]
               Am
Thought I was rid of you
                 C
Thought it was over with
                 G
Thought I was over it
            Am
Thought I evicted you from my heart
  C                       G
Kicked you out of my mind
                         G
So nothing left of you

Wouldn't be left behind

[Pre-Chorus 1]
F    Am                          F
Ooh, but you still take up all my space
                  G
You just won't Go away

[Chorus]
Am             C
You stay in my head
         G
Like an uninvited guest, uninvited guest
Am                  C
You still haunt my heart
           G                                   Am
Guess you haven't left it yet, haven't left it yet
 C           G
Ooh like an uninvited guest

[Verse 2]
               Am
Still see you everywhere
                 C
You're still in every room
                 G
Filled you with every move
                       Am
I can't Go on without erasing you from my heart
C                          G
Tired of feeling this pain
                           G
Seems you're the only ghost

I just can't chase away

[Pre-Chorus]
F    Am                         F
Ooh, you still inhabit every thought
                        G
I prayed that you'd be gone

[Chorus]
Am             C
You stay in my head
         G
Like an uninvited guest, uninvited guest
Am                  C
You still haunt my heart
           G                                   Am
Seems you haven't left it yet, haven't left it yet

[Bridge]
         F                 Am
I don't want to feel you around
        F                 C G
I just want you, want you out
F          G       Am
So please, go, please

[Outro Chorus]
Am             C
You stay in my head
         G
Like an uninvited guest, uninvited guest
Am                  C
You still haunt my heart
           G
Guess you haven't left it yet, haven't left it yet
Am                C
You stay in my head
         G
Like an uninvited guest, uninvited guest
Am                  C               G               Am
You still haunt my heart like an uninvited guest

Бой: восьмёрка.
Наверх