Аккорды Дурной вкус - Пластинки

Добавлено: @romashka
Дата добавления: 29 Июля 2020г.
Рейтинг:
0.0
Просмотров: 113
Транспонировать - +
Вступление:
e|-----------------------8--5--555--------------------------------------------------------------------
b|---------------66------------------------------66----------------------88---66----------------------
g|--77---99---------------------------77--99----------9--5--555---------------------------------------
d|----------------------------------------------------------------------------------------------------
a|----------------------------------------------------------------------------------------------------
e|----------------------------------------------------------------------------------------------------

e|-----------------------8--5--555----8---------------------------------------------------------------
b|----------------66----------------------8-888----6--5-555-------------------------------------------
g|--77---99-------------------------------------------------------------------------------------------
d|-----------------------------------------------------------------77--10-10--------------------------
a|----------------------------------------------------------------------------------------------------
e|----------------------------------------------------------------------------------------------------

e|-----------------------8--5--555---------------------------------------------------------------------
b|---------------66------------------------------66----------------------88---66-----------------------
g|--77---99---------------------------77--99----------9--5--555----------------------------------------
d|-----------------------------------------------------------------------------------------------------
a|-----------------------------------------------------------------------------------------------------
e|-----------------------------------------------------------------------------------------------------

e|-----------------------8--5--555----8-----------8--5-555---12-12-12-12-------------------------------
b|----------------66----------------------8-888--------------------------------------------------------
g|--77---99--------------------------------------------------------------------------------------------
d|-----------------------------------------------------------------------------------------------------
a|-----------------------------------------------------------------------------------------------------
e|-----------------------------------------------------------------------------------------------------

куплет  х2
e|-----------------------------------------------------------------------------------------------------
b|--6-6666----5-55-----------8-8888---6-66--5-55--6---666--5-55------------------7-8-5-----------------
g|----------------------7--77-------------------------------------------------7-7-7-77-----------------
d|-----------------------------------------------------------------------------------------------------
a|-----------------------------------------------------------------------------------------------------
e|-----------------------------------------------------------------------------------------------------

припев
e|-5555555--------------------------------------|-5555555----------------------------------------------
b|-----------------------66666-5-------6-5------|---------------------66666-5-----------6-5------------
g|--------------7-777---------------------------|-------------7-777------------------------------------
d|------------------------------------7---------|------------------------------------7-----------------
a|----------------------------------------------|--------------------------------------------------
e|----------------------------------------------|--------------------------------------------------

e|-555555-7------------------------------------|-5555555-----------------------------------------------
b|------------------------66666-5-------6-5---|----------------------8--88----6—5------6--5------------
g|---------------7-777--------------------------|-----------7-777--------------------------------------
d|-------------------------------------7----------|----------------------------------------77----------
a|-------------------------------------------------|---------------------------------------------------
e|------------------------------------------------|----------------------------------------------------

проигрыш
e|-----------------------------------------------------------------------------------------------------
b|-----------------------------------------------------------------------------------------------------
g|-9---5-5--5----7-777---5--5-55--10-101010---12-------------------------------------------------------

e|-----------------------------------------------------------------------------------------------------
b|-----------------------------------------------------------------------------------------------------
g|-9---5-5--5----7-777---5--5-55--10-10-10-10---12-12-12-10--------------------------------------------

e|-----------------------------------------------------------------------------------------------------
b|-----------------------------------------------------------------------------------------------------
g|----5-5--5----7-777---5--5-55--10-101010---12--------------------------------------------------------

e|-----------------------------------------------------------------------------------------------------
b|-----------------------------------------------------------------------------------------------------
g|-9---5-5--5----7-777---5--5-55--10-10-10-10---12-12-12-14--------------------------------------------

Куплет

Припев

Проигрыш (вступление)

Припев
Наверх