Аккорды Ecco2k - Pollen

Добавлено: @romashka
Дата добавления: 24 Декабря 2020г.
Рейтинг:
0.0
Просмотров: 18
Транспонировать - +
[Intro]
 
e|----------------------------------|
B|---------4--4--------6--6---------|
G|---------5--5--------7--7---------|
D|----------------------------------|
A|----3-----------5-----------------|
E|----------------------------------|
 
e|----------------------------------|
B|---------8--8--------3--3---------|
G|---------8--8--------4--4---------|
D|----------------------------------|
A|----6-----------------------------|
E|-----------------3----------------|
 
(repeat through the whole song)


  Skuggorna dansar igen
  Efter elden blommat ut
   Med pollen i luften
   Ska vi nog slå ut igen
  Jag vill tro på kärleken
  Låt det aldrig ta slut 


Åh-åh, åh, åh
Åh, åh, åh

  Skuggorna dansar igen
  Efter elden blommat ut
  Med pollen i luften
  Ska vi nog slå ut igen
  Jag vill tro på kärleken
  Låt det aldrig ta slut

Åh-åh, åh, åh
Åh, åh, åh

  Är du med mig hela vägen?
  Se så långt vi har att falla
  Längtan väger, väger tyngre
  Än att nå ner till marken
  Hela vägen ner (ah, ah, ah)
  Är du med mig hela vägen?
  Se så långt vi har att falla
  Längtan väger, väger tyngre
  Än att nå ner till marken (ah, ah)

  Skuggorna dansar igen
  Efter elden blommat ut
  Med pollen i luften
  Ska vi nog slå ut igen
  Jag vill tro på kärleken
  Låt det aldrig ta slut

Åh-åh, åh, åh
Åh, åh, åh

  Skuggorna dansar igen
  Efter elden blommat ut
  Med pollen i luften
  Ska vi nog slå ut igen
  Jag vill tro på kärleken
  Låt det aldrig ta slut

Åh-åh, åh, åh
Åh, åh, åh
Наверх