Аккорды Егор и Опизденевшие - Простор открыт

Добавлено: @romashka
Дата добавления: 01 Апреля 2021г.
Рейтинг:
0.0
Просмотров: 94
Транспонировать - +
Em A C(III) B
Понесло
Em A C(III) B
По воде
Em A C(III) B
Уголёк
Em A C(III) B
Далеко-далеко

Em    A    C(III)   B
Распахнулось настежь оконце
Em    A    C(III)   B
Скрипнули навзрыд половицы
Em    A    C(III)   B
В зеркале незваные гости
Em    A    C(III)   B
Подмигнули — померещились кому-то из нас

Em A C(III) B
Не горюй
Em A C(III) B
Не робей
Em A C(III) B
Поклонись,
Em A C(III) B
Да пойди погуляй

Em    A    C(III)   B
Зорко смотрит вдаль терпеливый
Em    A    C(III)   B
Широко шагает прочь безымянный
Em    A    C(III)   B
Весело молчит виноватый
Em    A    C(III)   B
Облачко порхает высоко-высоко

Em A C(III) B
Загудит
Em A C(III) B
Запоёт
Em A C(III) B
Заболит
Em A C(III) B
Под ногами земля

Em    A    C(III)   B
Мёртвого схоронит уставший
Em    A    C(III)   B
Радугу осилит ослепший
Em    A    C(III)   B
Звёздочку поднимет упавший
Em    A    C(III)   B
Яблочко от яблони — огонь от огня
         Em A C(III) B
         До Луны
         Em A C(III) B
         Рукою подать
         Em A C(III) B
         До Китая пешком
         Em A C(III) B
         Полшага
         C(III)
         Простор открыт
         B
         Ничего святого

Em A C(III) B
Загрустит
Em A C(III) B
Упадёт
Em A C(III) B
С головы
Em A C(III) B
Сорный волосок


Em    A    C(III)   B
Мёртвого схоронит уставший
Em    A    C(III)   B
Радугу осилит ослепший
Em    A    C(III)   B
Звёздочку отыщет упавший
Em    A    C(III)   B
Яблочко от яблони — огонь от огня

         Em A C(III) B
         До Луны
         Em A C(III) B 
         Рукою подать
         Em A C(III) B
         До Китая пешком
         Em A C(III) B
         Полшага
         Em A C(III) B
         Всего-то полшага
         Em A C(III) B
         Полшага!
         C(III)   
         Простор открыт
         B
         Ничего святого

Бас:

Куплет   
      x4                          x3                                                                 |"Простор открыт.."|
G|----------------------------|---------------------------------|-----4-4-6-6-2-2-4-4-0-0------------|------------------|
D|--2---2---2---2-------------|-2-4-5-4-2-------2---------------|-2-2---------------------4-5-7------|------------------|
A|----2---0---3---3-2-0-------|-----------0-2-3---3-2-0---------|------------------------------------|-3-3-3-3-3-3-3-3-2|
E|----------------------3-2---|-------------------------3-2-----|------------------------------------|------------------|


Во время соло:

   x8                           x4                                  x4
G|----------------------------|-----------------------------------|------------------------------------|
D|--2---2---2---2-------------|-2-2-2-2---------------------------|-2-2-2-2------------------1-2-4-4---|
A|----2---0---3---3-2-0-------|---------0-0-0-0--3-3-3-3-2-0------|---------0-0-0-0--3-3-3-3-----------|
E|----------------------3-2---|------------------------------3-2--|------------------------------------|
Наверх