Аккорды Егор и Опизденевшие - Свобода

Добавлено: @romashka
Дата добавления: 19 Сентября 2021г.
Рейтинг:
0.0
Просмотров: 51
Транспонировать - +
Соло:

B|--------------------5-2-3------|
G|------4-4/7-6-4----------------|
D|2-4-5-----------5-4------------|

E|10-9-7--------------|
B|------8-7-5-3-2-----|
G|---------------2----|

B|--------------------5-2-3------|
G|------4-4/7-6-4----------------|
D|2-4-5-----------5-4------------|

E|10-9-7--------------|
B|------8-7-5---------|
G|------------3-0-3/4-|.
Наверх