Аккорды Electric Guest - American Daydream

Добавлено: @romashka
Дата добавления: 24 Июня 2018г.
Рейтинг:
0.0
Просмотров: 17
Транспонировать - +
Вступление:
e|----------------------------------|------------------------------|
B|------1---------------4-----------|------2---------------4-------|
G|--------1---------------5---------|--------3---------------6---5-|
D|---3--------3------6--------6-----|---3--------3------5----------|
A|----------------------------------|1--------------3--------------|
E|1---------------4-----------------|------------------------------|   

e|--------1-------------------------|------------------------------|
B|------4-----1---------4-----------|------2---------------4-------|
G|---1--------------------5---------|--------3---------------6---5-|
D|-------------------6--------6-----|---3--------3------5--------5-|
A|-------------------6--------------|1--------------3--------------|
E|1---------------4-----------------|------------------------------|
 
Припев:
Fm
We keep going,
Ab
Don't stop running.
Bbm
They keep selling,
Cm
We don't want it.
Fm
So close to it,
Ab             Bbm         
Almost found a way.

Bbm Bm Cm

Fm
Two steps closer,
Ab
They keep coming.
Bbm
We keep yelling,
Cm
"We don't want it!"
Fm
Almost fed-up,
Ab                    Bbm    
This thing's bound to break.

Bbm Bm Cm

1 куплет:
Fm                  Bbm
Why don't you make yourself available.
Cm                     Fm
Sit back, she told me that she wanted it free.
Bbm   Cm
It's easy.
Fm                         Bbm
Oh no, in love I'm just an animal.
Cm               Fm
You said you want me, but you want me to leave,
           Bbm            
You want me, but you want, you want me to leave.
   Cm
Until the end, because

Припев:
Fm
We keep going,
Ab
Don't stop running.
Bbm
They keep selling,
Cm
We don't want it.
Fm
So close to it,
Ab             Bbm         
Almost found a way.

Bbm Bm Cm
And everyday they get

Fm
Two steps closer,
Ab
They keep coming.
Bbm
We keep yelling,
Cm
"We don't want it!"
Fm
Almost fed-up,
Ab                    Bbm    
This thing's bound to break.

Bbm Bm Cm

2 куплет:
Fm                  Bbm
After it all, it's still repairable.
Cm                     Fm
I know that I've forgotten my history.
Bbm   Cm
It's easy.

Fm                  Bbm
Let's wave goodbye to all the terrible.
Cm                     Fm
I know that there's a million things we could be,
Fm                  Bbm
If we could only dole it out and agree.
Cm                   Fm
Until the end, because:

Припев:
Fm
We keep going,
Ab
Don't stop running.
Bbm
They keep selling,
Cm
We don't want it.
Fm
So close to it,
Ab             Bbm         
Almost found a way.

Bbm Bm Cm
And everyday they get

Fm
Two steps closer,
Ab
They keep coming.
Bbm
We keep yelling,
Cm
"We don't want it!"
Fm
Almost fed-up,
Ab                    Bbm    
This thing's bound to break.

Bbm Bm Cm

Проигрыш

Bbm
Thought it was a holiday,
        Cm
Always play and never work.
Bbm
But they sell us all the bait,
    Cm
The western way, I go berserk, I go.
comments powered by Disqus
Наверх