Аккорды Electric Light Orchestra - Mr. Blue Sky

Добавлено: @romashka
Дата добавления: 17 Ноября 2018г.
Рейтинг:
0.0
Просмотров: 20
Транспонировать - +
Verse 1:
 F
Sun is shinin' in the sky,
               Em7  A7  Dm
There ain't a cloud in sight
              G
It's stopped rainin'
      Em          A7
Everybody's in a play
               Bb
And don't you know
         C            F        C
It's a beautiful new day, hey hey
 F
Runnin' down the avenue, (*Panting*)
            Em7  A7     Dm
See how the sun shines brightly
        G            Em
In the city on the streets
                A7
Where once was pity,
     Bb          C             F          C
Mr. Blue Sky is living here today.  Hey, Hey

Chorus:
Dm        C                  Bb
Mr. Blue Sky, please tell us why,
            Am
You had to hide away
    Gm      F               Eb        Bb 
For so long       where did we go wrong.
Dm        C                  Bb
Mr. Blue Sky, please tell us why,
            Am
You had to hide away
    Gm      F               Eb        Bb C
For so long       where did we go wrong.

Solo:
   F                                      Em7    A7    Dm
e|---------------------------------------------10---------|
B|-------10-11-10h11p10----------------------------13-----|
G|----10------------------12b14-r12-10--12b14----------10-|
D|-10-----------------------------------------------------|
A|--------------------------------------------------------|
E|--------------------------------------------------------|

                 G                Em               A7
e|---------------------------------------------------|
B|---------------------------------------------------|
G|-12b14--12b14--12b14r12-10------10-12b14-----10-12-|
D|----------------------------/12-----------12-------|
A|---------------------------------------------------|
E|---------------------------------------------------|

   Bb                       C                F  
e|-----------------------------------------------------|
B|--------------------------------------10b11r10----10-|
G|-12-10-12 12b14---12b14r12 10---10-12----------12----|
D|-----------------------------------------------------|
A|-----------------------------------------------------|
E|-----------------------------------------------------|

   C
e|---------------                      |-pb10r8-6-5--|
B|-pb11r10-------                      |-------------|
G|---------12-10- This bit harmonises  |-------------|
D|--------------- with this            |-------------|
A|---------------                      |-------------|
E|---------------                      |-------------|

Verse 2:
F
Hey you with the pretty face,
Em7             A7   Dm
Welcome to the human race
G                    Em
A celebration Mr. Blue Sky's
           A7           Bb
Up there waitin' and today
        C                F       C
Is the day we've waited for  Ah, Ah

Chorus 2:
Dm        C                  Bb
Mr. Blue Sky, please tell us why,
            Am
You had to hide away
    Gm      F               Eb       Bb 
For so long       where did we go wrong.

Dm         C      
Hey there Mr. Blue
Bb                  Am        
We're so pleased to be with you
Gm              F
Look around see what you do,
Eb         Bb          
Everybody smiles at you.

Dm         C      
Hey there Mr. Blue
Bb                  Am        
We're so pleased to be with you
Gm              F
Look around see what you do,
Eb                   Bb C 
Everybody smiles at you.

(Synth)
F            Em7 A7 Dm G Em A7 Bb   C F C
Mr Blue Sky. Mr. Blue Sky, Mr Blue Skyyy

Bridge:
 F          
Mr. Blue you did it right,
               Em7   A7    Dm
But soon comes Mis - ter Night,
          G
Creepin' over, now his
Em                A7
Hand is on your shoulder,
Bb                C           C#
Never mind I'll remember you this 
            Eb        Dm
I'll remember you this way.

Chorus 3:
Dm        C                  Bb
Mr. Blue Sky, please tell us why,
            Am
You had to hide away
    Gm    F          Eb        Bb 
For so long where did we go wrong.

Dm         C      
Hey there Mr. Blue (Sky) 
Bb                  Am        
We're so pleased to be with you (Sky)
Gm              F
Look around see what you do, (Blue)
Eb         Bb          
Everybody smiles at you.

Outro: Dm C Bb Am Gm F Eb Bb
       Dm C Bb Am Gm F | Eb Bb F (hold)

| h   Hammer-on
| p   Pull-off
| r   Release
| b   Bend
| pb  Pre-bend
| /   Slide up 
comments powered by Disqus
Наверх