Аккорды Ellie Goulding - Under The Sheets

Добавлено: @romashka
Дата добавления: 18 Января 2023г.
Рейтинг:
0.0
Просмотров: 17
Транспонировать - +
Intro:
e|-------------|------------|
B|-------------|------------|
G|-7-7---7-7---|-3-3--------|
D|-7-7---7-7---|-3-3---5-5--|
A|-5-5---5-5---|-1-1---5-5--|
E|-------------|-------3-3--|

Verse:
e|-------------|--------------|---------------|-------------|
B|-------------|--------------|---------------|-------------|
G|-7-7---7-7---|-7-7---7-7--x-|-0--3-3---3-3--|--------7-7--|
D|-7-7---7-7---|-7-7---7-7--x-|-2--3-3---3-3--|--5-5---7-7--|
A|-5-5---5-5---|-5-5---5-5--x-|-2--1-1---1-1--|--5-5---5-5--|
E|-------------|--------------|---------------|--3-3--------|

Pre-Chorus: "I see you in a fight you lost..."
e|-----------------|-----------------|
B|---------5-5-5-5-|-6-6-6-6-6-6-6-6-|
G|-7-7-7-7-5-5-5-5-|-7-7-7-7-7-7-7-7-|
D|-8-8-8-8-5-5-5-5-|-7-7-7-7-7-7-7-7-|
A|-8-8-8-8-3-3-3-3-|-5-5-5-5-5-5-5-5-|
E|-6-6-6-6---------|-----------------|

Chorus:
e|-----------------|-----------------|-----------------|-----------------|
B|-----------------|-----------------|-----------------|-----------------|
G|-----------------|-----------------|-----------------|-----------------|
D|-8-8-8-8-8-8-8-8-|-7-7-7-7-7-7-7-7-|-5-5-5-5-5-5-5-5-|-7-7-7-7-7-7-7-7-|
A|-8-8-8-8-8-8-8-8-|-7-7-7-7-7-7-7-7-|-5-5-5-5-5-5-5-5-|-7-7-7-7-7-7-7-7-|
E|-6-6-6-6-6-6-6-6-|-5-5-5-5-5-5-5-5-|-3-3-3-3-3-3-3-3-|-5-5-5-5-5-5-5-5-|

e|-----------------|-----------------|-----------------|-----------------|
B|-----------------|-5-5-5-5-5-5-5-5-|-6-6-6-6-6-6-6-6-|-6-6-6-6-6-6-6-6-|
G|-----------------|-5-5-5-5-5-5-5-5-|-7-7-7-7-7-7-7-7-|-7-7-7-7-7-7-7-7-|
D|-8-8-8-8-8-8-8-8-|-5-5-5-5-5-5-5-5-|-7-7-7-7-7-7-7-7-|-7-7-7-7-7-7-7-7-|
A|-8-8-8-8-8-8-8-8-|-3-3-3-3-3-3-3-3-|-5-5-5-5-5-5-5-5-|-5-5-5-5-5-5-5-5-|
E|-6-6-6-6-6-6-6-6-|-----------------|-----------------|-----------------|

Interlude: = Verse
Verse 2 = Verse
Chorus

Bridge:                           
e|-------------|-------------|-------------|-------------|
B|-6--6--6--6--|-5--5--5--5--|-------------|-------------|
G|-7--7--7--7--|-5--5--5--5--|-4--4--4--4--|-3--3--2--2--|
D|-7--7--7--7--|-5--5--5--5--|-4--4--4--4--|-3--3--2--2--|
A|-5--5--5--5--|-3--3--3--3--|-2--2--2--2--|-1--1--0--0--|
E|-------------|-------------|-------------|-------------|

Chorus
Наверх