Аккорды Ellie Goulding - Wish I Stayed

Добавлено: @romashka
Дата добавления: 18 Января 2023г.
Рейтинг:
0.0
Просмотров: 11
Транспонировать - +
Capo on 3

Verse/Intro:
|-------------------------------------------------|
|--------1----1----1----1----1----1----1--1--1----|
|--------2----2----2----2----2----2----2--2--0----|
|-------------------------------------------------|
|-----0----0----0----0----0----0----0-------------|
|-------------------------------------------------|

|-------------------------------------------------|
|--------1----1----1----1----1----1----1--1--1----|
|--------0----0----0----0----0----0----0--0--0----|
|-------------------------------------------------|
|-----3----3----3----3----3----3----3-------------|
|-------------------------------------------------|
Basically play an Am and a C but just plucking those strings 
and then at the chorus play Am  C and G :

       C            Am
With that skipping rope, the trampoline
   G
The crafty smoke that made us choke

But we didn't give up hope
         C          Am
It's just the simple ways, of getting paid
   G
The carelessnes of running away
           Mute the G here
I wish I stayed
I wish I stayed etc..

For the "I don't own my clothes but I own my mind etc.." bit, 
play the tabby bit above but all the strings shown together like: 
C  [XXX01X]
Am [XXX21X]
And only pluck them once:)

     C    C         Am   Am
I don't own my clothes but i own my mind
      C          C
And it's not what you've lost
      Am     Am
But it's what you find. etc...
Наверх