Аккорды Enjoykin - Ламповая няша

Добавлено: @romashka
Дата добавления: 18 Сентября 2018г.
Рейтинг:
0.0
Просмотров: 23
Транспонировать - +
    A#m
Я скромная няша
    C#
Я няша-стесняша
    F#
Люблю читать книжки
   G#m
И в Доту играть
   A#m
Я милая киса
   С#
Пушистые лапки
   F#
Люблю вечерами
   G#
О звёздах мечтать

     A#m                 G#       
САП, ДВАЧ! МУР МУР МУР МУР!
   F#         G#
Я ЛАМПОВАЯ НЯША!
     A#m                G#  
САП, ДВАЧ! МУР МУР МУР МУР!
   F#         G#
Я ЛАМПОВАЯ ТЯН!

E------------------1-----1-2-1------------1----------1-4---1---1-2--1----
B--2---2-1-2-1-------4----------4-2----4----2-1-2-----------4----------4-
G----3-----------1-------------------------------------------------------
D------------------------------------------------------------------------
A------------------------------------------------------------------------
E------------------------------------------------------------------------

          A#m            C#         F# G#
Целый мир, полный мемов, счастья и слёз...
       A#m                   C#         F# G#
Я люблю тебя, Дота, и знаю, что это всерьёз...
          A#m            C#          F# G#
Целый мир, полный мемов, счастья и слёз...
       A#m                   C#          F# G#
Я люблю тебя, Дота, и знаю, что это всерьёз...

     A#m                 G#       
САП, ДВАЧ! МУР МУР МУР МУР!
   F#      G#
Я ЛАМПОВАЯ НЯША!
     A#m                G#  
САП, ДВАЧ! МУР МУР МУР МУР!
   F#       G#
Я ЛАМПОВАЯ ТЯН!

E------------------1-----1-2-1------------1----------1-4---1---1-2--1----
B--2---2-1-2-1-------4----------4-2----4----2-1-2-----------4----------4-
G----3-----------1-------------------------------------------------------
D------------------------------------------------------------------------
A------------------------------------------------------------------------
E------------------------------------------------------------------------
comments powered by Disqus
Наверх