Аккорды Ennio Morricone - The Good, The Bad, And The Ugly

Добавлено: @romashka
Дата добавления: 08 Января 2022г.
Рейтинг:
0.0
Просмотров: 15
Транспонировать - +
E-----10---------------|-----------------------|-----10----------------|-----------------------|-----10------10-------|
A-10------10-----------|-----------------------|-10------10------------|---------------13------|-10------10-----------|
D-------------------10-|--12-------------------|----------------10-----|-----12----------------|--------------------10|
G----------------------|-----------12----------|-----------------------|-----------------------|----------------------|
B----------------------|-----------------------|-----------------------|-----------------------|----------------------|
E----------------------|-----------------------|-----------------------|-----------------------|----------------------|


|-----------------------|-----10----------------|
|-----------------------|-10------10------------|
|-----9-----------------|-----------------12----|
|---------12----10------|--------------------12-|
|-----------------------|-----------------------|
|-----------------------|-----------------------|
Наверх