Аккорды Eurythmics - Here Comes The Rain Again

Добавлено: @romashka
Дата добавления: 03 Сентября 2019г.
Рейтинг:
0.0
Просмотров: 17
Транспонировать - +
Вступление/проигрыш:
e|---------------0---------------|---------------1---------------|
B|-------0---------------0-------|-------1---------------1-------|
G|---5-------5---------5-----5---|-----0-----0---------0-----0---|
D|-----7-------7-----7---------7-|---3---------3-----3---------3-|
A|-0-----------------------------|-------------------------------|
E|-------------------------------|-1-----------------------------|

|---------------3---------------|---------------0---------------|
|-------3-----------------3-----|---0-----0-------------0-------|
|-----0-----0---------0-----0---|-----5-----5---------5-----5---|
|---5---------5-----5---------5-|-------7-----7-----7---------7-|
|-------------------------------|-0-----------------------------|
|-3-----------------------------|-------------------------------|

Проигрыш: Am9 Fsus2 Gsus2 Am9

Am9
Here comes the rain again
Fsus2
Falling on my head like a memory
Gsus2                              Am9
Falling on my head like a new emotion

Am9
I want to walk in the open wind
Fsus2
I want to talk like the lovers do
Gsus2
I want to dive into your ocean
      Am9
Is it raining with you?

      F+7              C+7    C
Baby, talk to me, like lovers do
F+7                C+7     C
Walk with me, like lovers do
      F+7              C+7     C
Baby, talk to me, like lovers do
D      G    Am9
Ooh... Eah...

Проигрыш: Am9 Fsus2 Gsus2 Am9

Am9
Here comes the rain again
Fsus2
Raining in my head like a tragedy
Gsus2                                  Am9
Tearing me apart like a new emotion, ohh...

Am9
I want to breathe in the open wind
Fsus2
I want to kiss like the lovers do
Gsus2       
I want to dive into your ocean
      Am9
Is it raining with you?

      F+7              C+7    C
Baby, talk to me, like lovers do
F+7                C+7    C
Walk with me, like lovers do
      F+7              C+7     C
Baby, talk to me, like lovers do
D      G   Am9
Ooh... eah...

Проигрыш: Am9 Fsus2 Gsus2 Am9 

Am9     x07500
Fsus2   1x3010
Gsus2   3x5030
F+7     103210
C+7     x32000
(6-ая струна зажимается большим пальцем).
comments powered by Disqus
Наверх