Аккорды Eve - Blow Ya Mind

Добавлено: @romashka
Дата добавления: 26 Мая 2021г.
Рейтинг:
0.0
Просмотров: 218
Транспонировать - +
-------14--16--18--16--14----------------------------E
--16-----------------------16--16--------------------B
-----------------------------------------------------G
-----------------------------------------------------D
-----------------------------------------------------A
-----------------------------------------------------Low E

-------14--16--18--16--14----------------------------E
--16-----------------------16--16--------------------B
-----------------------------------------------------G
-----------------------------------------------------D
-----------------------------------------------------A
-----------------------------------------------------Low E

-------14--16--18--16--14----------------------------E
--16-----------------------16--16--------------------B
-----------------------------------------------------G
-----------------------------------------------------D
-----------------------------------------------------A
-----------------------------------------------------Low E
Наверх