Аккорды Ex.princess - Поезда

Добавлено: @romashka
Дата добавления: 14 Августа 2022г.
Рейтинг:
0.0
Просмотров: 32
Транспонировать - +
Вступление (x2): 
Cm Ab Eb Bb 
 
Cm        Ab 
Проведу туда 
Eb                    Bb 
Где ночами забывал твой взгляд 
Cm       Ab 
И пусть горят 
Eb                    Bb 
Провожающие наши поезда 
 
Cm              Ab 
Ты прикинь, сколько мы прощались 
           Eb               Bb 
Ты прикинь, чтобы заново встречали 
            Cm                  Ab 
Ты приди в этот вечер очень тёмный 
         Eb      Bb 
Принеси всё то, что я не помню 
Cm               Ab 
И снова нужно молчать 
                        Eb                
Молчать, когда охота кричать 
                 Bb 
Разговор не начать 
                  Cm 
На нас немая печать 
                 Ab 
И не то что печаль 
                  Eb 
Каждый просто устал 
                       Bb 
По новой начинать всё опять 
 
припев(х2): 
Cm      Ab 
Проведу туда 
Eb              Bb 
Где ночами забывал твой взгляд 
Cm      Ab 
И пусть горят 
Eb            Bb 
Провожающие наши поезда 
 
проигрыш(х2): 
Cm Ab Eb Bb 
 
бридж(х2): 
Cm 
Я всё ещё жду 
Ab 
Ты всё ещё здесь 
Eb 
Тебе пишу 
Bb 
Даже эту песню 
Cm 
Я дождусь 
Ab 
Хотя бы во сне 
Eb 
Всё равно, пусть 
Bb 
Так спокойней мне 
 
припев(х2): 
Cm        Ab 
Проведу туда 
Eb                    Bb 
Где ночами забывал твой взгляд 
Cm       Ab 
И пусть горят 
Eb                    Bb 
Провожающие наши поезда 

Вступление, оно же играется параллельно с аккордами:
e---------------------------------------------------------------------------------------------
B-4-------4-------4-----------9-------9-------9-------8-------8-------8-------6-------6-8-6-3-
G---------------------------------------------------------------------------------------------
D-------------------------6-------6-------6---------------------------------------------------
A-----3-------3-------3---------------------------6-------6-------6---------------------------
E-------------------------------------------------------------------------6-------6-----------

соло в проигрыше:
e-------------------------6--4--3--4--4-3--------------------------------10-10-10-10-10-10-10-10-11-
B---4----6--4--3--4--4-----------------------4----6--4--3--4--4----3--4-----------------------------
G---------------------------------------------------------------------------------------------------
D---------------------------------------------------------------------------------------------------
A---------------------------------------------------------------------------------------------------
E---------------------------------------------------------------------------------------------------

Перебор в куплете:
Cm - 5 4 3 4 2
Ab - 6 4 3 4 2 4 3 4
Eb - 5 4 3 4 2
Bb - 6 4 3 4 2 4 3 4

Бой - восьмёрка. 
Наверх