Аккорды Fem.love - Почему я не могу успокоиться

Добавлено: @romashka
Дата добавления: 09 Ноября 2022г.
Рейтинг:
0.0
Просмотров: 46
Транспонировать - +
[Интро]

/ - слайд

e|----------------------------------------------------
B|--------6--------6-----6/5--------5--------5-----5--    
G|----------------------------------------------------     
D|-----7--------7----------------5--------5-----------      
A|--5--------5--------5-------3--------3--------3-----       
E|----------------------------------------------------        
    Dm                        C                                2x
e|----------------------------------------------------        /
B|----------------------------------------------------       /
G|--------2--------2--------------2--------2----------      /
D|----------------------------------------------------     /
A|-----3--------3--------3-----3--------3-------------    /
E|--1--------1--------1-----1--------1--------1/3-----
    F                       F

e|----------------------------------------------------
B|----------------------------------------------------    
G|---------5-------5-----5/4--------4--------4-----4--     
D|-----2--------2----------------0--------0-----------      
A|--0--------0--------0-------------------------------       
E|----------------------------3--------3--------3-----        
    Am                        G                                2x
e|--------0--------0--------------0--------0----------        /
B|-----------------------1----------------------------       /
G|-----0--------0--------------0--------0-------------      /
D|----------------------------------------------------     /
A|--3--------3--------3-----3--------3--------3/5-----    /
E|----------------------------------------------------
    C                       C

[Интро]
Dm     C                  F
    Почему я не могу успокоиться? Почему?
Dm     C                  F
    Почему я не могу успокоиться? Почему?


[Припев]:
Am       G                C
    Почему я не могу успокоиться?
              C                          Am
    Сколько штук меня в одном во мне кроется?
         G                 C                Am
    Почему я не могу успокоиться? Почему-у-у-у?
         G                C
    Почему я не могу успокоиться?
              C                          Am
    Сколько штук меня в одном во мне кроется?
         G                 C                Am
    Почему я не могу успокоиться? Почему-у-у-у?

[Куплет]:
Am G     C
    Выбора нет
                 Am
    Но мы уже почти
G           C
    Почти смогли
                    Am
    Если сможешь, прости
G        C
    Выбора нет
                     Am
    Мне так трудно дышать
G                   C
    Смотрю в эти довольные лица
C
    Уйди

[Припев]:
Am       G                C
    Почему я не могу успокоиться?
              C                          Am
    Сколько штук меня в одном во мне кроется?
         G                 C                Am
    Почему я не могу успокоиться? Почему-у-у-у?
         G                C
    Почему я не могу успокоиться?
              C                          Am
    Сколько штук меня в одном во мне кроется?
         G                 C                Am
    Почему я не могу успокоиться? Почему-у-у-у? 

Играть можно как боем, так и перебором из вступления.
Бой: восьмёрка/шестёрка.
Наверх