Аккорды Five Finger Death Punch - The Bleeding

Добавлено: @romashka
Дата добавления: 08 Октября 2017г.
Рейтинг:
0.0
Просмотров: 336
Транспонировать - +
Intro: x4
  Cm                       Cm                       G#                      A#
1)----3---4---3---1---1-3-----3---4---3---1---1-3-------------------------------------------------
2)-1----1---1---1---1------1----1---1---1---1----------4----4---4---4---4-------6---6---6---6---6-
3)--------------------------------------------------1-----1---1---1---1----1/3----3---3---3---3---

Bridge: Cm  Gm  D#  A# }x2 

Chorus:
   C5                D#5  F5  C5                D#5  F5    
4)-5-5--5-5-5--5-5-5--1---3---5-5--5-5-5--5-5-5--1---3---
5)-3-3--3-3-3--3-3-3--1---3---3-3--3-3-3--3-3-3--1---3---

Verse:
Cm
I remember when 
Cm
All the games began
         G#          
Remember every little lie 
    A#  
And every last goodbye
Cm
Promises you broke, 
Cm
Words you choked on
      G#
And I never walked away,
             A# 
It's still a mystery to me

Pre-Chorus:
     Cm     Cm
Well I'm so empty
    G#                      
I'm better off without you 
           A#
And you're better off without me
     Cm        Cm 
Well you're so unclean
    G#                 
I'm better off without you 
           A#
And you're better off without me

Chorus:
C5          
The lying, the bleeding, the screaming
    D#5  /  F5
Was tearing me apart
C5                                  
The hatred (deceiving), the beatings; 
   D#5 / F5
It's over

Verse:
Cm
Paint the mirrors black 
Cm
To forget you
         G#          
I still picture your face 
    A#  
And the way you used to taste
Cm
Roses in a glass, 
Cm
Dead and wilted
         G#          
To you this all was nothing
    A#  
Everything to you is nothing

Pre-Chorus:
     Cm        C5
Well you're so filthy
    G#            
I'm better off without you 
           A#
And you're better off without me
     Cm     Cm 
Well I'm so ugly
       G#
You're better off without me 
        A#
And I'm better off alone

Chorus:
C5          
The lying, the bleeding, the screaming
    D#5  /  F5
Was tearing me apart
C5                                  
The hatred (deceiving), the beatings; 
   D#5 / F5
It's over

Bridge: Cm  Gm
    D#                      
As wicked as you are, 
        A#             Cm  Gm
You're beautiful to me
           D#
You're the darkest burning star, 
        A#
You're my perfect disease

Chorus:
C5          
The lying, the bleeding, the screaming
    D#5  /  F5
Was tearing me apart
C5                                  
The hatred , the beatings; it's over 
   D#5 / F5
Disaster
C5          
The lying, the bleeding, the screaming
    D#5  /  F5
Was tearing me apart
C5                                  
The hatred , the beatings; it's over 
   D#5 / F5
Disaster

Outro:
Cm                       Cm                       G#                      A#
1)----3---4---3---1---1-3-----3---4---3---1---1-3-------------------------------------------------
2)-1----1---1---1---1------1----1---1---1---1----------4----4---4---4---4-------6---6---6---6---6-
3)--------------------------------------------------1-----1---1---1---1----1/3----3---3---3---3---
                                                                             It's over now...

Бой: V v ^ ^ v v v^
Наверх