Аккорды Five Finger Death Punch - Jekyll And Hyde

Добавлено: @romashka
Дата добавления: 07 Февраля 2018г.
Рейтинг:
0.0
Просмотров: 239
Транспонировать - +
Verse:
   C#5         B5 C#5 E5    F#5      D5
4)-6-6-6-6-6-6--4-6--9-9-9--11-11-11-7-7-
5)-4-4-4-4-4-4--2-4--7-7-7--9--9--9--5-5-

            C#5          B5 C#5 E5            F#5     D5
There's just so much God damned weight on my shoulders
         C#5              B5 C#5 E5            F#5 D5 
All I'm trying to do is live my motherfucking life
   C#5                B5 C#5  E5          F#5  D5
Supposed to be happy, but I'm only getting colder
         C#5             B5 C#5        E5      F#5 D5
Wear a smile on my face, but there's a demon inside

            C#5          B5 C#5 E5            F#5     D5
There's just so much God damned weight on my shoulders
         C#5              B5 C#5 E5            F#5 D5 
All I'm trying to do is live my motherfucking life
   C#5                B5 C#5  E5          F#5   D5
Supposed to be happy, but I'm only getting colder
         C#5             B5 C#5        E5      F#5 D5
Wear a smile on my face, but there's a demon inside

Chorus:
  C#5    B5    C#5    B5    D5 C#5   B5    
4)-6--6--4-4-4--6--6--4-4-4--7-6--6--4-4-4--x--x-
5)-4--4--2-2-2--4--4--2-2-2--5-4--4--2-2-2--x--x-

C#5  B5  C#5  B5       D5 C#5 B5 C#5 B5   
 Oh, yo, yo, there's a demon inside
C#5  B5  C#5  B5        D5 C#5 B5 C#5 B5
 Oh, yo, yo, just like Jekyll and Hyde
C#5  B5  C#5  B5      D5 C#5 B5 C#5 B5
 Oh, yo, yo, all this anger inside
C#5  B5  C#5  B5          D5 C#5 B5 C#5 B5
 Oh, yo, yo, I feel like Jekyll and Hyde

Verse:
            C#5          B5 C#5 E5         F#5  D5
Is there so much God damned weight on your shoulders
            C#5          B5 C#5 E5    F#5     D5
That you can't just live your motherfucking life
            C#5          B5 C#5 E5            F#5   D5
The story's getting old and my heart is getting colder
            C#5          B5 C#5 E5            F#5  D5
I just wanna be Jekyll, but I'm always fighting Hyde
            C#5          B5 C#5 E5            F#5     D5
You've got rocks in your head, I can hear them rolling 'round
            C#5          B5 C#5 E5            F#5     D5
You can say that you're above it, but you're always falling down
            C#5          B5 C#5 E5            F#5     D5
Is there a method to your madness? Is it all about pride?
            C#5          B5 C#5 E5     F#5 D5
Everyone I know, they've got a demon inside

Chorus:
  C#5    B5    C#5    B5    D5 C#5   B5    
4)-6--6--4-4-4--6--6--4-4-4--7-6--6--4-4-4--x--x-
5)-4--4--2-2-2--4--4--2-2-2--5-4--4--2-2-2--x--x-

C#5  B5  C#5  B5       D5 C#5 B5 C#5 B5   
 Oh, yo, yo, there's a demon inside
C#5  B5  C#5  B5        D5 C#5 B5 C#5 B5
 Oh, yo, yo, just like Jekyll and Hyde
C#5  B5  C#5  B5      D5 C#5 B5 C#5 B5
 Oh, yo, yo, all this anger inside
C#5  B5  C#5  B5          D5 C#5 B5 C#5 B5
 Oh, yo, yo, I feel like Jekyll and Hyde

Bridge:
A            
If I wasn't so deranged, 
A                     C#5
Could I ever face the pain?         

1)-------7-7-7------7-7-7--------7-7-7------7-7-7-
2)------------------------------------------------
3)------------------------------------------------
4)-6--6--------6--6-------7-6--6-------6--6-------
5)-4--4--------4--4-------5-4--4-------4--4-------

A
If I ever were to change,
A                         C#5
Would the song remain the same?

1)-------7-7-7------7-7-7--------7-7-7------7-7-7-
2)------------------------------------------------
3)------------------------------------------------
4)-6--6--------6--6-------7-6--6-------6--6-------
5)-4--4--------4--4-------5-4--4-------4--4-------

Chorus:
C#5  B5  C#5  B5
 Oh, yo, yo
All I'm trying to do is live my motherfucking life
C#5  B5  C#5  B5
 Oh, yo, yo
Wear a smile on my face, but there's a demon inside
C#5  B5  C#5  B5
 Oh, yo, yo
All I'm trying to do is live my motherfucking life
C#5  B5  C#5  B5
 Oh, yo, yo
Wear a smile on my face, but there's a demon inside

Solo: A5 A5 C#5 C#5 A5 A5 C#5 C#5

Chorus:
  C#5    B5    C#5    B5    D5 C#5   B5    
4)-6--6--4-4-4--6--6--4-4-4--7-6--6--4-4-4--x--x-
5)-4--4--2-2-2--4--4--2-2-2--5-4--4--2-2-2--x--x-

C#5  B5  C#5  B5       D5 C#5 B5 C#5 B5   
 Oh, yo, yo, there's a demon inside
C#5  B5  C#5  B5        D5 C#5 B5 C#5 B5
 Oh, yo, yo, just like Jekyll and Hyde
C#5  B5  C#5  B5      D5 C#5 B5 C#5 B5
 Oh, yo, yo, all this anger inside
C#5  B5  C#5  B5          D5 C#5 B5 C#5 B5
 Oh, yo, yo, I feel like Jekyll and Hyde

Outro:
1)-------7-7-7------
2)------------------
3)------------------
4)-6--6--------6--6-
5)-4--4--------4--4-
                   WHAT?!
Наверх