Аккорды Five Finger Death Punch - Trouble

Добавлено: @romashka
Дата добавления: 25 Февраля 2018г.
Рейтинг:
0.0
Просмотров: 343
Транспонировать - +
Intro: x2
  C5 
2)-4-------4-----------------4-------4-----------------
3)---4-5------4-5--5-3-6-5-----4-5------4-5------------
4)-------------------------------------------3-4-6-3-1-

Verse:
C5
I don't look for trouble - trouble looks for me!
C5
That's how it always been, that's how it's gonna be
C5
I'm lookin' down on you, you're lookin' up to me
C5
I've never saw you comin', you've never saw me

Pre-Chorus:
 C5 D5 D#5 F5 D#5 D5 D#5 D5 C5 D5    
4)-5--7--8--10-8--7--8--7--5--7-
5)-3--5--6--8--6--5--6--5--3--5-
            I can't explain who I am

Chorus:
              G# / D#                
Cause there's no excuses
         A#       /      Cm
This is who I'm meant to be
        G#  /  D#   
There's no regrets, 
         A#     /     Cm
I don't care if you believe
        G# / D#  
There's no excuses
         A#      /      Cm
This is who I choose to be
   G#       /      D#               
I don't look for trouble, 
 F5  /   G5   /   A5 / A#5
Trouble looks for me! 

3)-5-3-6-5-
Raarghhhh!

Intro:
  C5 
2)-4-------4-----------------4-------4-----------------
3)---4-5------4-5--5-3-6-5-----4-5------4-5------------
4)-------------------------------------------3-4-6-3-1-

Verse:
C5                 
Does it confuse you? I fuckin' used you
C5                   
I got just what I want and what I wanna do
C5
You won't destroy me, you just annoy me
C5
I'm sitting here on top so fuck your trophy!

Pre-Chorus:
 C5 D5 D#5 F5 D#5 D5 D#5 D5 C5 D5    
4)-5--7--8--10-8--7--8--7--5--7-
5)-3--5--6--8--6--5--6--5--3--5-
            I can't explain how I am

Chorus:
              G# / D#                
Cause there's no excuses
         A#       /      Cm
This is who I'm meant to be
        G#  /  D#   
There's no regrets, 
         A#     /     Cm
I don't care if you believe
        G# / D#  
There's no excuses
         A#      /      Cm
This is who I choose to be
   G#       /      D#               
I don't look for trouble, 
 F5  /   G5   /   A5 / A#5
Trouble looks for me! Get some!

Bridge: x5
   C5           C#5 C5       C#5 C5       C#5 C5     
4)-5---5---5-5-5-6--5---5-5-5-6--5---5-5-5-6--5--5--5-
5)-3---3---3-3-3-4--3---3-3-3-4--3---3-3-3-4--3--3--3-

G# D# A# Cm } x3
G# D# 
F5 / G5 / A5 / A#5 } x2  

   C5           C#5 C5       C#5 C5       C#5 C5     
4)-5---5---5-5-5-6--5---5-5-5-6--5---5-5-5-6--5--5--5-
5)-3---3---3-3-3-4--3---3-3-3-4--3---3-3-3-4--3--3--3-

Chorus:
              G# / D#                
Cause there's no excuses
         A#       /      Cm
This is who I'm meant to be
        G#  /  D#   
There's no regrets, 
         A#     /     Cm
I don't care if you believe
        G# / D#  
There's no excuses
         A#      /      Cm
This is who I choose to be
   G#       /      D#               
I don't look for trouble, 
 F5  /   G5   /   A5 / A#5
Trouble looks for me! 3)-5-3-6-5-
 F5  /   G5   /   A5 / A#5
Trouble looks for me!

3)-5-3-6-5-
Raarghhhh!

Outro:
  C5
2)-4-------4-----------------4--------
3)---4-5------4-5--5-3-6-5-----4-5--5-
4)----------------------------------3-

Бой на 2 аккорда в Chorus: V v ^ ^ v v v^. В Verse просто удары вниз.
Наверх