Аккорды Five Finger Death Punch - Watch You Bleed

Добавлено: @romashka
Дата добавления: 11 Марта 2018г.
Рейтинг:
0.0
Просмотров: 43
Транспонировать - +
Intro:
   Dm              F        C         Dm              F        C         Dm              F        C  
2)-3-1--3-----------------------------3-1--3-----------------------------3-1--3----------------------------
3)-2---------------2-0-0-0------------2---------------2-0-0-0------------2---------------2-0-0-0-----------
4)-0-------0-0-0---3-3-3-3--3-2-2-2---0-------0-0-0---3-3-3-3--3-2-2-2---0-------0-0-0---3-3-3-3--3-2-2-2--
5)--------------------------3-3-3-3----------------------------3-3-3-3----------------------------3-3-3-3--
   I'd    give     anything          just to cut you free                I'd    give  blood

  A#5              A#5  /   C        D5 C#5 D5 A#5
4)-3-3-3-3-3-3-3-3--3-3-3-3-5-5-5-5-|-7-6-7--7--3-
5)-1-1-1-1-1-1-1-1--1-1-1-1-3-3-3-3-|-5-4-5--5--1-
 Just to watch you just to watch you BLEED!   

Intro:
 Dm      Dm       A#                F / C         
I'd give anything just to cut you free.
 Dm        Dm   A#5
I'd give blood just to watch you,
A#5  /  C           D5 C#5 D5 A#5
Just to watch you BLEED!

Verse:
 D5 C#5 D5   D5 C#5 D5 D#5 D5 C#5 D5   D5 C#5 D5 F5 D5 C#5 D5   D5 C#5 D5 D#5 D5 C#5 D5   D5 C#5 D5 F5
4)-7-6-7--7--7--7-6-7---8---7-6-7--7--7--7-6-7-------7-6-7--7--7--7-6-7---8---7-6-7--7--7--7-6-7------
5)-5-4-5--5--5--5-4-5---6---5-4-5--5--5--5-4-5---1---5-4-5--5--5--5-4-5---6---5-4-5--5--5--5-4-5---1--
6)-----------------------------------------------3-------------------------------------------------3--

D5 C#5 D5          D5 C#5 D5   D#5 
I see through you and all your lies.
D5  C#5 D5          D5 C#5 C5  A#5
You are everything that I despise.
D5  C#5   D5         D5  C#5  D5 D#5  
You won’t take shit when you leave.
 D5  C#5 D5          D5   C#5  D5
What the hell do you want from me?

Pre-Chorus:
A#
I'm over it, so over it, 
C
This is goodbye!

Chorus:
 Dm      Dm       A#                F / C
I'd give anything just to cut you free.
 Dm        Dm  A#           
I'd give blood just to make you,
 F   /   C         Dm
Just to watch you BLEED!

Verse:
D5 C#5 D5          D5  C#5 D5 D#5 
I know you better than you do.
D5 C#5  D5            D5 C#5 D5 F5
I'm to fucking blame, so are you.
D5 C#5   D5          D5   C#5  D5  D#5   
It won’t kill me to watch you leave.
D5   C#5  D5         D5    C#5 D5  
What the fuck do you want from me?

Pre-Chorus:
A#
I'm over it, so over it, 
C
This is goodbye!

Chorus:
 Dm      Dm       A#                F / C
I'd give anything just to cut you free.
 Dm        Dm  A#           
I'd give blood just to make you,
 F   /   C         Dm
Just to watch you BLEED!

Bridge:
   G5         A5 A#5 F5 D#5
4)---------------------8-
5)-5-5--5-5--5-7-8--3--6--
6)-3-3--3-3--3-5-6--1-----

 Dm     
Just to make you, Just to watch you

   G5         A5 A#5 F5 D#5
4)---------------------8-
5)-5-5--5-5--5-7-8--3--6--
6)-3-3--3-3--3-5-6--1-----

 Dm
Just to make you, Just to watch you BLEED!

Solo: A# Gm  D5 C5 D#5 D5  D5 C5 D#5 D5 }x4
      D5 C5 D#5 D5 }x3
      D5 C5 D#5 

   Dm              F        C         Dm              F        C         Dm              F        C  
2)-3-1--3-----------------------------3-1--3-----------------------------3-1--3----------------------------
3)-2---------------2-0-0-0------------2---------------2-0-0-0------------2---------------2-0-0-0-----------
4)-0-------0-0-0---3-3-3-3--3-2-2-2---0-------0-0-0---3-3-3-3--3-2-2-2---0-------0-0-0---3-3-3-3--3-2-2-2--
5)--------------------------3-3-3-3----------------------------3-3-3-3----------------------------3-3-3-3--
   I'd    give     anything          just to cut you free                I'd    give  blood

  A#5              A#5  /   C        D5 C#5 D5    D5 C#5 D5
4)-3-3-3-3-3-3-3-3--3-3-3-3-5-5-5-5-|-7-6-7--7--7--7-6-7--7--7-
5)-1-1-1-1-1-1-1-1--1-1-1-1-3-3-3-3-|-5-4-5--5--5--5-4-5--5--5-
 Just to watch you just to watch you BLEED!   

Chorus:
 Dm      Dm       A#                F / C
I'd give anything just to cut you free.
 Dm        Dm  A#           
I'd give blood just to make you,
 F   /   C         Dm
Just to watch you BLEED!

 Dm      Dm       A#                F / C
I'd give anything just to cut you free.
 Dm        Dm  A#           
I'd give blood just to make you,
 F   /   C         Dm
Just to watch you BLEED!

Outro:
   Dm              F        C         Dm              F        C         Dm              F        C  
2)-3-1--3-----------------------------3-1--3-----------------------------3-1--3----------------------------
3)-2---------------2-0-0-0------------2---------------2-0-0-0------------2---------------2-0-0-0-----------
4)-0-------0-0-0---3-3-3-3--3-2-2-2---0-------0-0-0---3-3-3-3--3-2-2-2---0-------0-0-0---3-3-3-3--3-2-2-2--
5)--------------------------3-3-3-3----------------------------3-3-3-3----------------------------3-3-3-3--
                                                                         I'd    give    blood...

Бой: V v ^ ^ v ^
comments powered by Disqus
Наверх