Аккорды Five Finger Death Punch - Diary Of A Deadman

Добавлено: @romashka
Дата добавления: 25 Марта 2018г.
Рейтинг:
0.0
Просмотров: 269
Транспонировать - +
Intro:

Guitar 1:
   E5
4)-2-2-2-2--2-2-2-2--2--2-2---2-2-2-2--2-2-2-2--2--2-2--2-2-2-2--2-2-2-2--2--2-2---2-2-2-2--2-2-2-2--2--2-2-
5)-2-2-2-2--2-2-2-2--2--2-2---2-2-2-2--2-2-2-2--2--2-2--2-2-2-2--2-2-2-2--2--2-2---2-2-2-2--2-2-2-2--2--2-2-
6)-0-0-0-0--0-0-0-0--0--0-0---0-0-0-0--0-0-0-0--0--0-0--0-0-0-0--0-0-0-0--0--0-0---0-0-0-0--0-0-0-0--0--0-0-

Guitar 2:
2)---------------------------------------------------------------------------------4-4-4-4----7-
3)------------------------------------------------------5-5-5-5--4-4-4-4------------------------
4)-2-2-2-2--4-4-4-4-----------5-5-5-5--1-1-1-1--------------------------------------------------

Bridge:
 B5 C#5 D5 C#5 B5  C#5 D5 C#5 B5  C#5 D5 C#5 B5  C#5 D5 C#5 B5 D5 B5 C#5 B5
4)-4--6--7-6-4-4--4--6--7-6-4-4--4--6--7-6-4-4--4--6--7-6-4-----------------
5)-2--4--5-4-2-2--2--4--5-4-2-2--2--4--5-4-2-2--2--4--5-4-2--5--2-2--4--2-2-

 B5 C#5 D5 C#5 B5  C#5 D5 C#5 B5  C#5 D5 C#5 B5  C#5 D5 C#5 B5 D5 B5 C#5 B5  D5      A5
4)-4--6--7-6-4-4--4--6--7-6-4-4--4--6--7-6-4-4--4--6--7-6-4------------------7--7-7----
5)-2--4--5-4-2-2--2--4--5-4-2-2--2--4--5-4-2-2--2--4--5-4-2--5--2-2--4--2-2--5--5-5--7-
6)-----------------------------------------------------------------------------------5-

Verse:
   E5                D5           C5        B5    /    D5   
2)----0--------0--------0-----------0---------0----------
3)-------------------------------------------------------
4)-2----5/4--2----2--0-----4----0------4/2-------------4-
5)--------------------------------3---------3----3-2---5-

Em                      
Looking back I still have so many questions
D
So many things unanswered
      C
Like what did I do? What could I do?
Bm             /             D
Was there ever a moment you cared?

Em
Was I always ugly and abandoned
   D                                               C
Remembering all the times you wished me harm. You wished me dead. 
                                    Bm     /     D
How could I have changed to make it better? And would I?
A5
Would I?
G5
WHY?

Bridge: x2
   C5        C5   ^    E5         E5     C5        C5   ^    E5       G5               
1)-3--2-----------8----3--2--------------3--2-----------8----3--2--0--7-
2)-------3--1-----8----------3--5--------------3--1-----8---------------

Verse:
   E5                D5           C5        B5    /    D5   
2)----0--------0--------0-----------0---------0----------
3)-------------------------------------------------------
4)-2----5/4--2----2--0-----4----0------4/2-------------4-
5)--------------------------------3---------3----3-2---5-

Em                      
I still feel so much hate inside of me
 D
Seems like you were just waiting for me to fail
     C
I'm sorry I can't forgive you
         Bm         /          D
Do you blame me? You never forgave me

Em
I've tried to grow from this
                     D
Every day is a new challenge, because with you 
D
there's just no winning
C
Like it or not I'm still a part of you
            Bm       /      D
And you're still a part of me
            A5
Like it or not 
        G5
You're still a part of me 
YEAH!

Bridge:
   E5                        C5          B5                 A5                        G5   
4)---------------------------5-5-5-5--5--4--4-4-4-4-4-4-4-|-----------------------------------------------
5)-2-2-2-2--2-2-2-2--2--2-2--3-3-3-3--3--2--2-2-2-2-2-2-2-|-7-7-7-7--7-7-7-7--7--7-7--5-5-5-5--5-5-5-5--5-
6)-0-0-0-0--0-0-0-0--0--0-0-------------------------------|-5-5-5-5--5-5-5-5--5--5-5--3-3-3-3--3-3-3-3--3-
                       x3                                                  x1

Bridge x2:
   C5        C5   ^    E5         E5     C5        C5   ^    E5       G5               
1)-3--2-----------8----3--2--------------3--2-----------8----3--2--0--7-
2)-------3--1-----8----------3--5--------------3--1-----8---------------

Bridge x2:
   B5           C5 B5           C5 B5           C5 B5 
4)-4--4-4-4-4-4-5--4--4-4-4-4-4-5--4--4-4-4-4-4-5--4--4--4--4-
5)-2--2-2-2-2-2-3--2--2-2-2-2-2-3--2--2-2-2-2-2-3--2--2--2--2-

Bridge:
 B5 C#5 D5 C#5 B5  C#5 D5 C#5 B5  C#5 D5 C#5 B5  C#5 D5 C#5 B5 D5 B5 C#5 B5
4)-4--6--7-6-4-4--4--6--7-6-4-4--4--6--7-6-4-4--4--6--7-6-4-----------------
5)-2--4--5-4-2-2--2--4--5-4-2-2--2--4--5-4-2-2--2--4--5-4-2--5--2-2--4--2-2-

 B5 C#5 D5 C#5 B5  C#5 D5 C#5 B5  C#5 D5 C#5 B5  C#5 D5 C#5 B5 D5 B5 C#5 B5  D5      A5
4)-4--6--7-6-4-4--4--6--7-6-4-4--4--6--7-6-4-4--4--6--7-6-4------------------7--7-7----
5)-2--4--5-4-2-2--2--4--5-4-2-2--2--4--5-4-2-2--2--4--5-4-2--5--2-2--4--2-2--5--5-5--7-
6)-----------------------------------------------------------------------------------5-

Bridge:
   E5                        C5          B5                 A5                        G5   
4)---------------------------5-5-5-5--5--4--4-4-4-4-4-4-4-|-----------------------------------------------
5)-2-2-2-2--2-2-2-2--2--2-2--3-3-3-3--3--2--2-2-2-2-2-2-2-|-7-7-7-7--7-7-7-7--7--7-7--5-5-5-5--5-5-5-5--5-
6)-0-0-0-0--0-0-0-0--0--0-0-------------------------------|-5-5-5-5--5-5-5-5--5--5-5--3-3-3-3--3-3-3-3--3-
                       x3                                                  x1

Em
So this is how it ends
         D
All the tears, all the blood
                  C
It's all been for nothing
                             Bm    /    
As the candle dwindles and flickers out
D
The end.

Бой: V v ^ ^ v v v^
Наверх