Аккорды Five Finger Death Punch - The Devil's Own

Добавлено: @romashka
Дата добавления: 15 Июня 2018г.
Рейтинг:
0.0
Просмотров: 61
Транспонировать - +
Intro:
  F#5 B5                F#5 B5                  D5      E5                              D5      
4)-4-4--4-4--4-4--4-4-4--4-4--4-4--4-4--4-4-4-4-7-7-7-7-9-9-9-9-9-9-9-9-9-9-9-9-9-9-9-9-7-7-7-7-7-7-7-7-
5)-4-2--2-2--2-2--2-2-2--4-2--2-2--2-2--2-2-2-2-5-5-5-5-7-7-7-7-7-7-7-7-7-7-7-7-7-7-7-7-5-5-5-5-5-5-5-5-
6)-2---------------------2------------------------------------------------------------------------------
                                            The Devil's own
   B5      A5
4)-4-4-4-4-2-2-
5)-2-2-2-2-0-0-
6)-------------
           WHY?!
Chorus:
Bm                   Bm                      G
Where did I go wrong? Who was I supposed to be?
                        Em        /       D 
No matter what I've done, you've always criticized me
Bm                   Bm                      G
Where did I go wrong? Who was I supposed to be?
                       Em      /     D      D5 D5 D5 D5
When it's said and done, will you remember...

Verse:
D5                  D5
Slap on the wrist, smack in the face
D5              D5 
The family tree,
D5            D5
Gave me a name and nothing more
D5            D5   
Neglected seed

Pre-Chorus:
   B5                                 G5 F#5 D5                     E5           E5 D#5 D5 
4)-4--x-x-x-x--4--x-x-x-x--4--x-x-x-x--------7--x-x-x-x--7--x-x-x-x--9--x-x-x-x--9--8--7-
5)-2--x-x-x-x--2--x-x-x-x--2--x-x-x-x--5--4--5--x-x-x-x--5--x-x-x-x--7--x-x-x-x--7--6--5-
6)-------------------------------------3--2----------------------------------------------
 WHY?!                                It's because of you I'm broken...

G5   F#5 D5              E5  E5 D#5 D5  B5 
It's because of you I'm broken
G5   F#5 D5              E5    E5 D#5 D5
It's because of you I'm dead inside
B5
I never asked to be here
G5   F#5 D5              E5   E5 D#5 D5
It's because of you I'm godforsaken
B5
I never wanted this
G5   F#5 D5              E5   E5 D#5 D5
It's because of you I'm dead inside

Chorus:
Bm                   Bm                      G
Where did I go wrong? Who was I supposed to be?
                        Em        /       D 
No matter what I've done, you've always criticized me
Bm                   Bm                      G
Where did I go wrong? Who was I supposed to be?
                       Em      /     D      D5 D5 D5 D5
When it's said and done, will you remember me

Verse:
D5           D5
A happy home, a fairy tale, 
D5            D5
A broken dream
D5               D5
Gave me a life, then turned away
D5                
Killed everything

Pre-Chorus:
   B5                                 G5 F#5 D5                     E5           E5 D#5 D5 
4)-4--x-x-x-x--4--x-x-x-x--4--x-x-x-x--------7--x-x-x-x--7--x-x-x-x--9--x-x-x-x--9--8--7-
5)-2--x-x-x-x--2--x-x-x-x--2--x-x-x-x--5--4--5--x-x-x-x--5--x-x-x-x--7--x-x-x-x--7--6--5-
6)-------------------------------------3--2----------------------------------------------
 WHY?!                                It's because of you I'm broken...

G5   F#5 D5              E5  E5 D#5 D5  B5 
It's because of you I'm broken
G5   F#5 D5              E5    E5 D#5 D5
It's because of you I'm dead inside
B5
I never asked to be here
G5   F#5 D5              E5   E5 D#5 D5
It's because of you I'm godforsaken
B5
I never wanted this
G5   F#5 D5              E5   E5 D#5 D5
It's because of you I'm dead inside

   D5    
Fuck!
B5 
Father, bastard, I'm the Devil's very own
G5               E5   /   D5      
Mother, know not, just who I've become
B5
Father, hate me, for being all you're not
G5            E5        /        D5 
Mother's baby, I hate what I've become
D5                 D5  
I hate what I've become
D5               D5 
I hate what I've become

Pre-Chorus:
   B5                                 G5 F#5 D5                     E5           E5 D#5 D5 
4)-4--x-x-x-x--4--x-x-x-x--4--x-x-x-x--------7--x-x-x-x--7--x-x-x-x--9--x-x-x-x--9--8--7-
5)-2--x-x-x-x--2--x-x-x-x--2--x-x-x-x--5--4--5--x-x-x-x--5--x-x-x-x--7--x-x-x-x--7--6--5-
6)-------------------------------------3--2----------------------------------------------
 WHY?!                                It's because of you I'm broken...

G5   F#5 D5              E5  E5 D#5 D5  B5 
It's because of you I'm broken
G5   F#5 D5              E5    E5 D#5 D5
It's because of you I'm dead inside

Chorus:
Bm                   Bm                      G
Where did I go wrong? Who was I supposed to be?
                        Em        /       D 
No matter what I've done, you've always criticized me
Bm                   Bm                      G
Where did I go wrong? Who was I supposed to be?
                       Em      /     D      D5
When it's said and done, will you remember me

Бой Chorus: V v ^ ^ v v v ^
comments powered by Disqus
Наверх