Аккорды «Fleetwood Mac»

Fleetwood Mac
Fleetwood Mac (читается «Флитвуд Мэк») — влиятельная и коммерчески успешная британо-американская группа, которая с момента своего создания в июле 1967 года знала немало взлётов и падений, несколько раз обновляла состав и меняла стиль исполняемой музыки, благодаря чему смогла сохранить популярность дольше подавляющего большинства конкурентов — вплоть до самого конца XX века. 1 Блюзовый и пост-блюзовый период 2 Американский период 3 Восьмидесятые и девяностые 4 Участники 5 Дискография Блюзовый… Читать полностью... Fleetwood Mac (читается «Флитвуд Мэк») — влиятельная и коммерчески успешная британо-американская группа, которая с момента своего создания в июле 1967 года знала немало взлётов и падений, несколько раз обновляла состав и меняла стиль исполняемой музыки, благодаря чему смогла сохранить популярность дольше подавляющего большинства конкурентов — вплоть до самого конца XX века. 1 Блюзовый и пост-блюзовый период 2 Американский период 3 Восьмидесятые и девяностые 4 Участники 5 Дискография Блюзовый и пост-блюзовый период Группа была создана в Лондоне выдающимся блюзовым гитаристом Питером Грином, который до этого записал успешный альбом с командой John Mayall & the Bluesbreakers. Название команда получила по именам ударника Мика Флитвуда и басиста Джона Макви, которые никогда не оказывали существенного влияния на её музыкальное направление. Они единственные участники первого состава, которые и по сей день выступают вместе с Fleetwood Mac, хотя к концу 1960-х оба были вынуждены ненадолго покинуть коллектив по причине хронических проблем с алкоголем. В конце 1960-х Fleetwood Mac, в стиле игры придерживались традиционного чикагского блюза, а также записали несколько вещей других музыкальных направлений, которые отлично иллюстрируют баллада «Black Magic Woman» (сделавшая знаменитым Карлоса Сантану) и их первый суперхит, инструментальная композиция «Albatross», отметившаяся в январе 1969 года на первом месте в Великобритании и, по признанию Джорджа Харрисона, вдохновившая The Beatles на написание «Sun King». К 1971 году гитарно-блюзовый состав Fleetwood Mac прекратил существование: гитаристы Грин и Джереми Спенсер под влиянием наркотиков впали в шизофрению. Последняя песня Грина — «Green Manalishi» — стала впоследствии хитом для Judas Priest. Некоторое время группа считалась прекратившей существование, а бывший менеджер команды раскручивал альтернативный состав, к первоначальному не имевший никакого отношения. С 1971 по 1974 во главе «подлинной» группы фактически стояли Кристина Макви (жена Джона) и гитарист Боб Велч. Американский период После его ухода Флитвуд и супруги Макви привлекли к участию в коллективе американского гитариста Линдсея Бакингэма и его экстравагантную подружку Стиви Никс, которые решительно развернули направление Fleetwood Mac в сторону стильной поп-музыки с гитарным сопровождением и хрипловатым женским вокалом. Американизированная группа избрала источником своего вдохновения The Beach Boys, вслед за которыми они обосновались в Калифорнии. Альбом «Rumours» (1977): 31 неделя на первом месте в Billboard 200, 19 миллионов проданных копий, один из 25 лучших альбомов в истории по версии журнала Rolling Stone. Эта реформа оказалась настолько успешной, что вышедший в 1975 г. альбом «Fleetwood Mac» c синглом «Rhiannon» открыл команду для американской молодёжи и вскарабкался на первое место в национальном чарте продаж (Billboard 200). Последовавший за ним альбом «Rumours» стал самым кассовым релизом года и выиграл «Грэмми» за лучший альбом. Широко известны хиты с этого диска — «Dreams» (1-е место в США), «Don’t Stop» (3-е место в США), «Go Your Own Way» (лучшая песня группы, по мнению журнала Rolling Stone). После оглушительного успеха «Rumours» команда провела два года над записью амбициозного и новаторского альбома «Tusk» (1979), который был высоко оценен музыкальными критиками (он считается одним из предшествеников «новой волны»), однако обернулся коммерческим провалом (хотя и дебютировал на первом месте по обе стороны Атлантики). Восьмидесятые и девяностые Последующие альбомы группы веяли ностальгией и зачастую достигали первого места в чартах продаж: «Mirage» (1982) и «The Dance» (1997) — в США, а «Tango in the Night» (1987) и «Behind the Mask» (1990) — в Великобритании. Ярким образчиком позднего творчества группы является песня Макви «Little Lies» (1987). В 1991 году ставшая лицом Fleetwood Mac блондинка Стиви Никс покинула команду и было объявлено об её распаде, однако несколько месяцев спустя их убедил воссоединиться сам Билл Клинтон, использовавший «Don’t Stop» в качестве музыкальной темы для своей предвыборной компании. Именно Fleetwood Mac выступали на балу по поводу инаугурации 42-го президента США. Участники Линдсей Бакингэм выступает на американском телевидении, 2003 год. Джон МакВи (John McVie) Стиви Никс (Stevie Nicks) Мик Флитвуд (Mick Fleetwood) Линдси Букингем (Lindsey Buckingham) Кристина МакВи (Christine McVie) Питер Грин (Peter Green) Джереми Спесер (Jeremy Spencer) Денни Кируэн (Danny Kirwan) Боб Велч (Bob Welch) Боб Уестон (Bob Weston) Дейв Уокер (Dave Walker) Билли Бёрнет (Billy Burnette) Рик Вито (Rick Vito) Дейв Мэйсон (Dave Mason) Бекка Брамлет (Bekka Bramlett) Боб Браннинг (Bob Brunning) Дискография 1 Блюзовый период (1967—1970) 1.1 Дополнительные сборники 1.2 Концертные альбомы 1.3 Бутлег 2 Промежуточный период (1970—1974) 2.1 Дополнительные сборники 3 Американский период (1975—) 3.1 Сборники 3.2 Концертные альбомы 4 Синглы Блюзовый период (1967—1970) Peter Green’s Fleetwood Mac (Blue Horizon, 1968) Mr. Wonderful (Blue Horizon, 1968) English Rose compilation (Epic, 1969--US only) The Pious Bird Of Good Omen (Blue Horizon 1969 — только в ВБ) Then Play On (Reprise, 1969) Fleetwood Mac In Chicago/Blues Jam In Chicago vols 1 & 2 (Blue Horizon, 1969) [править]Дополнительные сборники Greatest Hits (CBS Europe, 1971) The Original Fleetwood Mac (1967-8 записан, выпущен Blue Horizon 1971) The Complete Blue Horizon Sessions 1967—1969 [Box set] (Columbia UK, 1999) The Vaudeville Years of Fleetwood Mac: 1968 to 1970 [Box set] (выпущен 1999) Show-Biz Blues 1968—1970 [Box set] (Companion to «Vaudville», выпущен c. 2002) Best of Peter Green’s Fleetwood Mac (Columbia UK, 2000) Original Fleetwood Mac: The Blues Years (3-CD set, Castle, 2000) Jumping at Shadows: The Blues Years (Castle/Sanctuary, 2002) Men of the World: The Early Years (Sanctuary, 2005) Концертные альбомы Live at the Marquee, 1967 (выпущен 1992) Masters: London Live '68 (выпущен 1998) Live At The BBC (выпущен 1995) Shrine '69 (концерт 1969, выпущен 1999) Live at the Boston Tea Party, vols 1-3 (записан 5-7 февраля, 1970. выпущен на Snapper, 1998—2000. ) Oh Well--Greatest Hits Live () Бутлег Carousel Ballroom (1968) Промежуточный период (1970—1974) Kiln House (Reprise, 1970) Future Games (Reprise, 1971) Bare Trees (Reprise, 1972) Penguin (Reprise, 1973) Mystery To Me (Reprise, 1973) Heroes Are Hard to Find (Reprise, 1974) Дополнительные сборники Madison Blues [Kiln House/Christine Perfect Band outtakes box set] (Shakedown Records, 2003) Американский период (1975—) Fleetwood Mac (Reprise, 1975) Rumours (Warner, 1977) Tusk (Warner, 1979) Mirage (Warner, 1982) Tango in the Night (Warner, 1987) Behind the Mask (Warner, 1990) Time (Warner, 1995) Say You Will (Warner, 2003) Сборники Greatest Hits (Warner, 1988) 25 Years — The Chain Box set (Warner, 1992) The Very Best of Fleetwood Mac (Warner, 2002) Концертные альбомы Live (Warner, 1980) The Dance (Reprise, 1998) Live In Boston (Warner, 2004) (From the Say You Will tour) Синглы Peter Green Era «I Believe My Time Ain’t Long»/«Rambing Pony» (Nov 1967, Blue Horizon) «Black Magic Woman» [#37 UK] /«Long Grey Mare» (June 1968, Epic) «Need Your Love So Bad» [#31 UK] «Stop Messin' Round» (UK, Blue Horizon) /«No Place To Go» (US, Epic) «Albatross [instrumental]» [#1 UK — 2 weeks]/«Jigsaw Puzzle Blues [instrumental]» (Jan 1969, Epic) «Man Of The World» (1969) [#2 UK] /«Somebody’s Gonna Get Their Head Kicked In Tonight» (B-side as «Earl Vince and the Valiants») (April 1969, Immediate) «Rattlesnake Shake»/«Coming Your Way» (September 1969, Reprise) «Oh Well pts 1 & 2» [#55 US, #2 UK] (November 1969, Reprise) «The Green Manalishi» [#10 UK] /«World In Harmony [instrumental]» (June 1970, Reprise). Transitional Era «Jewel Eyed Judy»(written for good friend Judy Wong)/«Station Man» «Dragonfly»/«The Purple Dancer» «Sands Of Time»/«Lay It All Down» «Sentimental Lady»/«Sunny Side Of Heaven [instrumental]» «Did You Ever Love Me»/«The Derelict» «Spare Me A Little Of Your Love»/«Sunny Side Of Heaven [instrumental]» «Remember Me»/«Dissatisfied» «Did You Ever Love Me»/«Revelation» «For Your Love»/«Hypnotized» «Heroes Are Hard To Find»/«Born Enchanter» With Christine McVie/Lindsey Buckingham/Stevie Nicks «Over My Head» (1976) #20 US «Rhiannon» (1976) #11 US, #46 UK «Say You Love Me» (1976) #11 US, #40 UK «Go Your Own Way» (1977) #10 US, #38 UK «Dreams» (1977) #1 US — 1 week, #24 UK «Don’t Stop» (1977) #3 US, #32 UK «You Make Loving Fun» (1977) #9 US, #45 UK «Tusk» (1979) #8 US, #6 UK «Sara» (1979) #7 US, #37 UK «Think About Me» (1980) #20 US «Sisters Of The Moon» (1980) #86 US «Fireflies» (1981) #60 US «Hold Me» (1982) #4 US «Gypsy» (1982) #12 US, #46 UK «Love In Store» (1982) #22 US «Oh Diane» (1982) #9 UK «Big Love» (1987) #5 US, #9 UK «Seven Wonders» (1987) #19 US, #56 UK «Little Lies» (1987) #4 US, #5 UK «Everywhere» (1988) #14 US, #4 UK «Family Man» (1988) #90 US, #54 UK «Isn’t It Midnight» (1988) #60 UK «As Long As You Follow» (1988) #43 US, #66 UK «Save Me» (1990) #33 US, #53 UK «In The Back Of My Mind» (1990) #58 UK «Silver Springs» (1997) #41 US «Landslide» (1998) #51 US «Peacekeeper» (2003) #80 US Скрыть...
Популярные аккорды Fleetwood Mac:
алфавиту | просмотрам | случайно
  • Tuning: E A D G B E
    Capo: on the 3rd fret
    
    chords used:
    C:     x32010
    G/B:   x20033
    Am7:   x02010
    G:     320003
    G/B*:  x20030
    Am7/G: x02013
    C/G:   x32013
    
    INTRO:
            C                G/B              Am7…
  • Intro: Am  F  (Strum a few times - just listen to the song for guidence)
    
    Verse 1:
       Am
    Rhiannon rings like a bell through the night.
    
         F
    And wouldn't you love to love her
    
    Am
    Takes to the sky like a bird in flight…
  • This song is in standard tuning, tune your 6th string to drop D and capo on the
    
    
    2nd fret.  This is thumb picking at a brisk tempo!
    
    ------------------------------------------------------------------------------|
    ------------------------------------------------------------------------3v----|
    ------------------------------------------------------------------------------|
    -----0------------0----------------0---------0-------3p0------------0---------|
    ---------0---3b-----------------------0--3------------------------------------|
    -0-------------------0--3b-3b---0----------------0---------3b---0-------------|
    
    
    ------------------------------------------------------------------------------|
    --------------------------3v----------------3---------------------3v----------|
    -----------------------------------------------2------------------------2-----|
    -----0-----3b--3b----0------------------0---------3p0----------0--------------|
    -0-3--------------------------0----3----------------------------------0----3b-|
    --------0----------------------------------------------3b---0-----------------|
    
    
    ------------------------------------------------------------------1b----------|
    --------3--------------3---------------3-------------------3-------------3v---|
    -3v--------------------------------------2--------------2---------------------|
    ----0------3b-3b---0----------------0-------------------0-------------0-------|
    ---------------------------0---3b------------3p0---------------0--------------|
    -------------------------------------------------3b--0------------------------|
    
    
    --------------------------1----------------------------------3b-----1v--------|
    ----3--------3v------------------3v-----3--------------------3b-----------3---|
    -----------------------------------------------------------------------0------|
    -0-----3--0-----------0------0-------0------3p0-----------0------0------------|
    ------------------------------------------------3p0---------------------------|
    -----------------3b---------------------------------3b-0----------------------|
    
    
    -----------------------------3b-----1-----------------------------------------|
    -----------------------------3b-----------3v----------------------------------|
    --------------------------------------------------0---------x-----------------|
    --0---------0------------0-------0-----0------0------3b--0--------------0-----|
    -------3b------------------------------------------------------3--------------|
    ----------------3b---0----------------------------------------------0---------|
    
    
    -----------------------------------------------------------------0------------|
    -----------------1---------1---1h3---------------------1--------------1h3-----|
    -----------------------2--------------------------2----------2----------------|
    ------0------0-------------0--------0------0---------0-----------0------------|
    ------------------------------------------------------------------------------|
    -0-------0----------0----------0-------0-------0----------0-----------0-------|…
  • Key:
     H - hammer-on
     P - pull-off
     / - slide up
      - slide down
     
     
       Section A (play twice)
     
     E|---|-5--4--------------5--4--------------|
     B|---|-5--4--------------5--4--------------|
     G|---|-6--4--------------6--4--------------|…
  • Tuning E A D G B E
    
    INTRO: Piano arranged for guitar
    ------------------|-------------------
    15-13-12----12----|-15-13-12----12----
    14-------14-12-12-|-14-------14-12-12-
    ------------------|-------------------
    ------------------|-------------------
    ------------------|-------------------
    
    ------------------------------------
    -15--12--15--12--15----12--15----12-
    -14------14------14-14-----14-14----
    ------------------------------------
    ------------------------------------
    ------------------------------------
    
    
    VERSE:…
  • Tuning: E A D G B E
    
    CHORDS USED:
    Am    x02210
    F     133211
    G     320003
    G6    32000x
    
    intro:    F     G      F      G
    
    F                         G
    Now here you go again
    F                                           G
    You…
  • F5  Cm5  Bb5   C5   Db5
    E-------------------------*
    B-------------------------*
    G------------3----5----6--*
    D--3----5----3----5----6--*
    A--3----3----1----3----4--*
    E--1----3-----------------*
    
    Verse 1
    
    F5
    I've been alone,…
  • [Each chord is half a measure]
    
    E   A/E   E   A/E   E   A/E   E   A/E
    [intro]
    
    E        D           A                   A
      If you wake up and don't want to smile
    E       D            A            A
      If it takes just a…
  • INTRO: D E | D/F# E | D E | D/F# E
           D E | D/F# E | D E | D/F#
     
    VERSE:
     F#m
      If I could turn the page 
     F#m                F#m7/E           Dmaj7   E/D
      In time then I'd rearrange just a day or two 
     Dmaj7…
  • Capo 2
    
    Verse 1
    G
    Have mercy, baby, on a poor girl like me
    						   G
    You know Im falling, falling, falling at your feet
    
    Im tingling right from head to my toes
    	D					     G
    So Help me, help me, help me make the feeling…
  • Legend
    ------
    
     h  = hammer-on
     p  = pull-off
     b  = bend
     r  = bend release
     /  = slide up/down
     = natural harmonic
    [5] = artifical harmonic
     ~  = vibrato
     tr = trill
    
    
    
       Capo on 4th Fret * Light slapback delay
    
    E|------------------------------0----------5------7---8p0-------
    B|--------------------1p0----------1-----1---------------0-------1p0---
    G|------------------------2---0-2--2-2-----2-------------------------0-
    D|--------------------------2------2---------2-3~---3-5~---6-----------
    A|-------------0---------0----------------------------0---------
    E|----------------------------0--------------------------------------0-…
  • INTRO: Gm    ./.    ./.    ./.    F    ./.    Eb    ./.
    
    1
    Gm    ./.           ./.    ./.
    SWEET     WONDERFUL YOU,
    F            ./.                       Eb    ./.
     YOU MAKE ME HAPPY WITH THE THINGS YOU DO.
    Gm    ./.…
  • This cool little tune is tuned down to dropped-D tuning (low E to a D)
    Licics are pretty complicated to sing so listen to the tape frist...
    
    ok, here goes...
    
    Main Chords..(I'm not sure about the G, right fingering, wrong…
  • g                a
    You are here and warm,
        bm            a                      bm  bar2 bm bar2 bm
    But I could look away and you'd be gone.
    g                   a
    'Cause we live in a time, 
         bm               a…
  • Tuning=EADGBe
    
    Main riff: (just remember that the open low As are the bass note)
    e|-------------|-------------|---------------------|
    B|-2-0---------|-2-0---------|-2-0---------0-------|
    G|-----2---2---|-----2---2---|-----2---2-----2-----|
    D|-------------|-------------|---------------------|
    A|-0-0---0---0-|-0-0---0---0-|-0-0---0---0-0-0-0-0-|
    E|-------------|-------------|---------------------|
    
    Chorus…
  • Tuning E A D G B E
    
    Chords used:
    D:  xx0232
    A:  x02220
    E:  xx9997 (a regluar E chord sounds good too)
    
    VERSE riff:
    e|---------0-------|---------0-------|---------0-------|---------0--------|
    B|-----0-------0---|-----0-------0---|-----0-------0---|-----0-------0----|
    G|---2---2---2---2-|---2---2---2---2-|---2---2---2---0-|---2---2---2---2--|
    D|-----------------|-----------------|-----------------|------------------|
    A|-0---------------|-0---------------|-----------------|------------------|
    E|-----------------|-----------------|-0---------------|-0----------------|
    
    CHORUS…
  • Bbdim5
        x_x________
        ? ? ? ? ? ?
        * * * * * *
        ? ? ? ? ? ?
        * * * * * *
        ? ? O O O ?
        * * * * * *
    
    
    Key of F
    
    F G Am G ...
    Wait a minute, baby.
    Stay with me awhile.
    Said you'd give me light
    But you never…
  • Tuning: E A D G B E (standard)
       F               C              Bflat    
    [----1----]	[----0----]	[----1----]
    [----1----]	[----1----]	[----3----]
    [----4----]	[----0----]	[----3----]
    [----3----]	[----2----]	[----3----]
    [----3----]	[----3----]	[----1----]
    [----1----]	[----0----]	[----X----]…
  • Tuning: D A D G B E (dropped D)
    Capo: on the 4th fret
    
    Verse riff:
    e|-----------|-----5-----5-----|-----------|-----5-----5---|
    B|---3---2/3-|-------3-----3---|---3/2---5-|-3-----3-----3-|
    G|-----------|---2-----2-----2-|-----------|---2-----2-----|
    D|---4---2/4-|-----4-------4---|---4/2---5-|-----4-------4-|
    A|-----0-----|---------0-------|-------0---|---------0-----|
    D|-0---------|-0---------------|-0---------|-0-------------|
    
    e|-2-----2-----2---|---2-----2-----2-|
    B|---5-----5-----5-|-----5-----5-----|
    G|-----------2-----|-------2---------|
    D|-----5-------5---|-----5-------5---|
    A|-0-------0-------|-0-------0-------|
    D|-----------------|-----------------|
    
    e|-------------|-----5---------|
    B|-3-----5/7-5-|-3-----------3-|
    G|---2---------|---------2-----|
    D|-----4-5/7-5-|---4-------4---|
    A|--------/0---|-------0-------|
    D|-0-----------|-0-------------|
    
    Chorus…
  • Tuning E A D G B E
    
    Chords:
    Dm: x5776x
    G:  x5543x
    A:  x7765x
    C:  x355xx
    G5: 355xxx
    A5: 577xxx
    
    Drum intro, then:
    
    Dm x2
    
    Dm
    Why don't you ask him if he's going to stay?
    Dm                                        G       A
    Why…
  • Tuning:
    Standard, EADGBE.
    
    Intro:
    
        D                       A     Aadd6
    E|--5--3--2--3-----2-----|--5-----2-----|
    B|--3--3--3--3-----3-----|--2-----2-----|
    G|--2--2--2--2-----2-----|--2-----2-----|
    D|--0--0--0--0-----0-----|--2-----2-----|
    A|-----------------------|--0-----0-----|
    E|-----------------------|--------------|…
  • This is a Fleetwood Mac classic. I don't know how it can't already be here, but it wasn't, 
    so now it is. Uh..yeah. I've only submitted the struff for the main guitar. There's at 
    least one other guitar playing chords in…
  • tuning: E A D G B E (standard)
    
    Chords-
    
    	D			Emin			G			
    	[----2----]		[----0----]		[----3----]		
    	[----3----]		[----0----]		[----0----]
            [----2----]             [----0----]             [----0----]
    	[----0----]…
  • Tuning: E A D G B E 
    
         A               E               Bmin      
    [----0----]	[----0----]	[----2----]
    [----2----]	[----0----]	[----3----]
    [----2----]	[----1----]	[----4----]
    [----2----]	[----2----]	[----4----]
    [----0----]	[----2----]	[----2----]
    [----0----]	[----0----]	[----X----]…
  • [F]Loving you Isn't the right thing to do [C]
    [Bb]How can I ever change things That I feel[F]  [Fsus9]
    
    [F]If I could Maybe I'd give you my world [C]
    [Bb]How can I When you won't take it from me[F]  [Fsus9]
    
    {soc}
    {c:chorus}
    [Dm]You…
  • Tuning: E A D G B E
    
    Intro:
    G5
    
    Verse 1:
    
    A         D        G
    Where are   you darling,
    D       A      D    G
    When my   moon is rising 
         D   A                 D     G
    And your   sun is shining down?  
    
    D    G    A
    
    Verse…
  • Tuning E A D G B E
    
    Chords-	
    
    C		G		F		E		Amin
    [----0----[	[----3----[	[----1----[	[----0----[	[----0----[
    [----1----[	[----0----[	[----1----[	[----0----[	[----1----[
    [----0----[	[----0----[	[----2----[	[----1----[	[----2----[
    [----2----[	[----0----[	[----3----[	[----2----[	[----2----[
    [----3----[	[----2----[	[----3----[	[----2----[	[----0----[
    [----0----[	[----3----[	[----1----[	[----0----[	[----0----[
    
    
    C
    Was…
  • Tuning E A D G B E
    
    intro and verse: (picked throughout the song except for the chorus which can be strummed)
              D	             A		  G	           A
    e|------2--3--2---|---------------|----------------|------------|
    B|------3--3--3---|---------2--2--|------0---------|------2--2--|
    G|----2-----------|---------2--2--|------0---------|------2--2--|
    D|-0-----0--------|-------2-------|----0-----------|----2-------|
    A|----------------|-----0---------|-----------0--2-|--0---------|
    E|----------------|---------------|---3------------|------------|
    
    VERSE…
  • Verse:  
                    Em  D
    Looking out for love 
                   C    D
    In the night so still 
             Em          D
    Oh I'll build you a kingdom 
              C             D
    In that house on the hill 
     
    Chorus:…
  • Playing Notes:
    
    / - slide up
     - slide down
    s - slide between notes
    ~ - vibrato
    
    played in Open E (E B E G# B E from low to high)
    
    
    Part 1:
    E-|-----------------------/12-12-------------------------/12-12-------------|
    B-|-----------------------/12-12-------------------------/12-12-------------|
    G#|-----------------------/12-12-------------------------/12-12---1---------|
    E-|--------------------0--/12-12----------------------0--/12-12-----0-0-2-2-|
    B-|-2--0-0-2-2-0-0-2-2--------------2--0-0-2-2-0-0-2-2------------------------|
    E-|---------------------------------------------------------------------------|
    
    
    |-------------/5-5-------------------------/12-12-------------------------|
    |-------------/5-5-------------------------/12-12-------------------------|
    |---------1---/5-5-------------------------/12-12----------0-0-----0-0----|
    |-0-0-2-2-----/5-5-------------------------/12-12------2-2-----2-2--------|
    |---------------------2--0-0-2-2-0-0-2-2-0------------0---------------------|
    |---------------------------------------------------------------------------|
    
    
    |--------------------------|
    |-/5~--/12--/12/12--/12/12-|
    |-/5~--/12--/12/12--/12/12-|
    |-/5~--/12--/12/12--/12/12-|
    |--------------------------|
    |--------------------------|
    
    
    Part…
  • Dm                         Am
    		I got a black magic woman, I got a black magic woman
    			  Dm                                      Gm	     
    		I got a black magic woman got me so blind I can't see
    	                  Dm…
  • Tuning: E A D G B E
    Capo: on 1st fret
    
    each chord played for half a bar 
    
    / indicates repeat chord
    
    Intro: D D/C G/B D/A G D/F# Asus4
    
    D           D/C       G/B               D/A
     Is love so fragile... and the heart so hollow
    G…
  • Tuning: E A D G B E 
    Capo: on the 5th fret
    
    E|----------------------------5----------------------------------------
    B|-----------------5--5-4-5-5---3------2--------2---1-2-2~7-0-----0----
    G|--2--2-1-2-2-----4--3-----2------------1---1--2-2-----------------0--
    D|-----------------------------------------2------------0-----2-3----3-
    A|--0--2-----4--5--4--3-----2-----2-1--0-------------------------------
    E|----------------------------------------------2----------------------
    
    E|----0---0------------------------0------------0---------------------------
    B|----------------------------------0---------0---0----5-------5----5---4-5-
    G|--2---2---2-1---2-2---2--2-1-2-2----2----2--------2----4---4---4----3-----
    D|--------------------------------------------------------------------------
    A|--4---3---2-------0---0--2-----4------5--------------4---4--------3-------
    E|--------------0-----------------------------------------------------------
    
    E|--------5-------------------------------------------------0---0-----------
    B|--5-5-5---3-------2--------2----1-2-2~7-0-------0-------------------------
    G|---------------------1---1-2--2-------------------0-----2---2---2-1---2-2-
    D|-----------------------2------------0-----2-3-------3---------------------
    A|------2-----2-1---0-------------------------------------4---3---2-------0-
    E|---------------------------2----------------------------------------0-----
    
    E|------------------------0---------------------------------------7-7-7-
    B|--3-2-3--10~8-7--------------3-2---------3-2-3--10----8-7---7---4-4-4-
    G|-----------------2-1-2----1-------2-----------------------------------
    D|--4-2-4--11~9-7--2---------2--------2----4-2-4--11----9-7-7-----------
    A|--0-0-0--0--0-5--0-------------0------0--0-0-0--0-------5-------------
    E|------------------------0---------------------------------------7-7-7-
    
    E|--7-0-2-4-0---------------------------------------------5----------------
    B|------------3-0-----------------------------5--5-4-5--5---3------2-----2-
    G|----------------1-------------2--2-1-2-2----4--3------2------------1-----
    D|------------------2-0------------------------------------------------2---
    A|----------------------2-------0--2-----4--5-4--3------2-----2-1--0-------
    E|--0---------------------4-0----------------------------------------------
    
    E|----------------5--5--5--5-4-5-5--0--5--5-4-2--0----
    B|--2----1-2-2~7-----6--2--3-----2--3--2--3------3----
    G|--2-2--------------7--1--2-----2--2--1--2------2--1-
    D|------------0------7--------------2-----------------
    A|----------------------0--------0-----0--------------
    E|--2----------------------0--------------0------0----…
  • Tuning:
    Standard, EADGBE.
    
    
    Chords:
    E5     07xxxx
    Em     022000
    G      320003
    G(iii) 355433
    A      x02220
    A(v)   577655
    D      xx0232
    
    
    Intro:
    
    E|--0----------------|-------------------|
    B|--0----------------|-------------------|
    G|--0----------------|-------------------|
    D|--5----------------|-------------------|
    A|--7-7-7-7-7-7-7-7--|--7-7-7-7-7-7-7-7--|
    E|--0-0-0-0-0-0-0-0--|--0-0-0-0-0-0-0-0--|
    
    
    E|--0----------------|-------------------|
    B|--0----------------|-------------------|
    G|--0----------------|-------------------|
    D|--4----------------|-------------------|
    A|--5-5-5-5-5-5-5-5--|--5-5-5-5-5-5-5-5--|
    E|--0-0-0-0-0-0-0-0--|--0-0-0-0-0-0-0-0--|
    
    
    E|--0----------------|-------------------|
    B|--5----------------|-------------------|
    G|--6----------------|-------------------|
    D|--6----------------|-------------------|
    A|--4-4-4-4-4-4-4-4--|--4-4-4-4-4-4-4-4--|
    E|--0-0-0-0-0-0-0-0--|--0-0-0-0-0-0-0-0--|
    
    
    E|--7----------------|-------------------|
    B|--8----------------|-------------------|
    G|--9----------------|-------------------|
    D|--9----------------|-------------------|
    A|--7-7-7-7-7-7-7-7--|--7-7-7-7-7-7-7-7--|
    E|--0-0-0-0-0-0-0-0--|--0-0-0-0-0-0-0-0--|
    
    
    Verse:
    E5
    Now…
  • Standard Tuning ebgDAE.
                                                    
    Tempo - Relaxed
    
    Chord Structure :
    B       X24400
    C#m     X46600
    A       X02200
    G#m	466X00
    E       022100
    
    INTRO
    B C#m A   B C#m A   B C#m A   B C#m…
  • Tuning: E A D G B E
    
    Chords:
    F#m(addG)=2440XX
    B(addG)=X240XX
    Arpeggiate the chords slowly, emphasizing the ringing open G
    string.  An electronic tremolo effect also helps.
    
    Intro
    Em C F#m(addG) B(add G)
    (2 times)…
  • riff 1                          riff2
                                       C5  Bb5
    E-----------------------*       E----------*
    B-----------------------*       B----------*
    G--5-5---3-3---5-5---7-7*       G----------*
    D-----------------------*…
  • Em                           C
    We make all of our suns the same
                                D                                                
    Every one will suffer the fire we've made…
  • verse 1:
    Em               C
    Until she herself
                               D
    Became the deadliest poison
    
    As she grew older 
    Em                   C
    Ohh until she herself
                        D
    Became just as fatal…
  • Tuning=DADGBe (drop D)
    
    legend:
    
    b&r=bend note and release it
    
    b=bend
    
     
    
    Verse:
    
    e|----------------------|
    B|----------------------|
    G|---4-2-4---2-2b&r0----|
    D|-0-------0---------3b-|
    A|----------------------|
    D|----------------------|…
  • INTRO: F  Bb  C
    
    VERSE: (C) I've been (F) searching for a lot (Bb) of
    gold, like the kind you find at the end of the
    rainbow (Dm).
    I've been (F) dreaming thought it (Bb) was in vain.
    Ah, but now (C) you're here, can't believe…
  • Tuning:
    Standard, EADGBE.
    
    Chords:
    Ebdim xx1212
    
    Key:
    b - bend
    h - hammer-on
    p - pull-off
    / - slide up
     - slide down
    
    
    Intro:
                      A                            A7
    E|-------------|--------------------------------------|
    B|---------10--|--14b-14--------10h12----10-----------|
    G|--9--11------|-------------11-------11-----11-----9/|
    D|-------------|--------------------------------------|
    A|-------------|--------------------------------------|
    E|-------------|--------------------------------------|…
  • Tuning:
    Standard, EADGBE.
    
    Chords:
    E5     07xxxx
    Em     022000
    G      320003
    G(iii) 355433
    A      x02220
    A(v)   577655
    D      xx0232
    
    
    Intro:
    
    E|--0----------------|-------------------|
    B|--0----------------|-------------------|
    G|--0----------------|-------------------|
    D|--5----------------|-------------------|
    A|--7-7-7-7-7-7-7-7--|--7-7-7-7-7-7-7-7--|
    E|--0-0-0-0-0-0-0-0--|--0-0-0-0-0-0-0-0--|
    
    
    E|--0----------------|-------------------|
    B|--0----------------|-------------------|
    G|--0----------------|-------------------|
    D|--4----------------|-------------------|
    A|--5-5-5-5-5-5-5-5--|--5-5-5-5-5-5-5-5--|
    E|--0-0-0-0-0-0-0-0--|--0-0-0-0-0-0-0-0--|
    
    
    E|--0----------------|-------------------|
    B|--5----------------|-------------------|
    G|--6----------------|-------------------|
    D|--6----------------|-------------------|
    A|--4-4-4-4-4-4-4-4--|--4-4-4-4-4-4-4-4--|
    E|--0-0-0-0-0-0-0-0--|--0-0-0-0-0-0-0-0--|
    
    
    E|--7----------------|-------------------|
    B|--8----------------|-------------------|
    G|--9----------------|-------------------|
    D|--9----------------|-------------------|
    A|--7-7-7-7-7-7-7-7--|--7-7-7-7-7-7-7-7--|
    E|--0-0-0-0-0-0-0-0--|--0-0-0-0-0-0-0-0--|
    
    
    Verse:
    E5
    Now…
Наверх