Аккорды Фліт - NonStop

Добавлено: @romashka
Дата добавления: 14 Августа 2017г.
Рейтинг:
0.0
Просмотров: 328
Транспонировать - +

Вступ:
         Dm                             Am                          C                                 G
1)----------------------------------------------------------------------------------------------------------
2)-6-5-3--6--6-6-6-6-6-6-6-6-6----6-5-3-----------------------6-5-3----------6-5-3--------------------------
3)--------------------------------------5--5-5-5-5-5-5-5-5-5--------5--5-5-5-------5--5-5-5---7-5--7--5-----
4)-----------------------------------------------------------------------------------------------7------7-5-
5)----------------------------------------------------------------------------------------------------------
      A                  Dm                            Am                            C  
1)----------------------------------------------------------------------------------------------------------
2)-----------------------6--6-6-6-6-6-6-6-8-6-6-8-6-6--5--5-5-5-5-5-5-5-6-5-5-6-5-5--5--5-5-5-5-5-5-5-6-5-5-
3)----------------------------------------------------------------------------------------------------------
4)-7-5---5-----------5-7------------------------------------------------------------------------------------
5)-----8---8-7-5-7-8----------------------------------------------------------------------------------------
         G                  A
1)-------5--5-5-5-5-5-5-5--10--10-10-10-10-10-10-10-
2)-6-5-5--------------------------------------------
3)--------------------------------------------------
4)--------------------------------------------------
5)--------------------------------------------------

Куплет:
Dm                   Am      C
Не позичай в неба безмежності,
                  G
У відстані розлуки – 
           A         Dm
В кохання незалежності. 
                       Am
Ти знаєш, що в тобі живе весь світ -
C                G            A
Пульсує діями думок твоїх творіннями.

Приспів:
Dm                          Am
Ми грішимо - щоб подолати гріх,
                           C
І спішимо - щоб обігнати всіх.
                                G
Режим NON STOP – ще більше висоти,
                  A             Dm 
Скажи насправді, нам, усім хто ти?
                            Am
Ти ні на мить, не зупиняєшся,
                             C
Земля тремтить, ти не лякаєшся.
                              G      
Ідеш вперед, повз биті дзеркала -
                  A
Не відіб’ється в них душа твоя.

Куплет:
Dm                   Am   C
Якщо знов дорікаєш сам собі,
                  G
Відкрий світило серцю і не моленій душі.
           A         Dm
Один твій крок на зустріч небесам -
                       Am
І вже ніколи не залишишся один чи сам.
F G
Один чи сам,
F G
Один чи сам.

Приспів:
Dm                          Am
Ми грішимо - щоб подолати гріх,
                           C
І спішимо - щоб обігнати всіх.
                                G
Режим NON STOP – ще більше висоти,
                  A             Dm 
Скажи насправді, нам, усім хто ти?
                            Am
Ти ні на мить, не зупиняєшся,
                             C
Земля тремтить, ти не лякаєшся.
                              G      
Ідеш вперед, повз биті дзеркала -
                  A
Не відіб’ється в них душа твоя.

Соло:           D5          A5       A#5    F5(VIII) E5(VII) D5         A5           A#5                    
1)------------|----------------------------------1-----0-------------------------5-5--5---5-8-5-3-5-3-1--
2)------------|-3--------------------------------------------3--5--6--8--3--5--6--------6----------------
3)-5--7-7-5-7-|------------2----------3------------------------------------------------------------------
     8 раз
   F5              E5   
1)-3--3-3--1--1-1--0--0-0--1-0-----
2)-----------------------------1-3-
3)---------------------------------

Приспів:
Dm                          Am
Ми грішимо - щоб подолати гріх,
                           C
І спішимо - щоб обігнати всіх.
                                G
Режим NON STOP – ще більше висоти,
                  A             Dm 
Скажи насправді, нам, усім хто ти?
                            Am
Ти ні на мить, не зупинЯєшся,
                             C
Земля тремтить, ти не лякАєшся.
                              G      
Ідеш вперед, повз биті дзеркала -
                  A
Не відіб’ється в них душа твоя.
F   G          A  
В них душа твоя.

Наверх