Аккорды Flёur - Колыбельная для Солнца

Добавлено: @romashka
Дата добавления: 16 Марта 2013г.
Рейтинг:
0.0
Просмотров: 797
Транспонировать - +
e-||-------------|--------------|--------------|------p0-------|
B-||-------------|--0h1p0-------|--------------|--1-h3p1-------|
G-||-------2-----|--------2-----|--------2-----|---------2-----|
D-||----2-----2--|-----------2--|-----2-----2--|------------2--|
A-||-0-----------|--------------|--0-----------|---------------|
E-||-------------|--------------|--------------|---------------|


e-|--------------|--------------|--------------|--0-------------||
B-|--------------|--0h1p0-------|--------------|--1-h3p1--------||
G-|--------2-----|--------2-----|--------2-----|---------2-----*||
D-|-----2-----2--|-----------2--|-----2-----2--|------------2--*||
A-|--0-----------|--------------|--0-----------|----------------||
E-|--------------|--------------|--------------|----------------||


Am              G6           Fmaj7
    Солнце, мне кажется, ты устало светить
Am              G6          Fmaj7
    Солнце, мне кажется, ты просто устало
Am         G6              Fmaj7
    Ляг скорей в облака, отдохни
Am       G6          Fmaj7
    Я поправлю тебе одеяло
C             G6       Am
    Солнце, забудь обо всем
C         G6          Fmaj7
    Я отменю все метеосводки
C             G6               Am
    Хочешь, я буду беречь твой сон -
C         G6                Fmaj7
    Самый сладкий и самый короткий
Am
Сон...


Chord voicings:

G6    : 320000
Fmaj7 : x33210
Наверх