Аккорды Fozzy - Enemy

Добавлено: @romashka
Дата добавления: 22 Мая 2018г.
Рейтинг:
0.0
Просмотров: 192
Транспонировать - +
Intro:
   Dm           C            Dm          F   C
1)------12-13--------12-8-|-------12-13---------------
2)-8h10---------8h10------|--8h10---------------------
3)------------------------|------------------5--5-5-5-
4)------------------------|--------------3-3-5--5-5-5-
5)------------------------|--------------3-3-3--3-3-3-
6)------------------------|--------------1-1----------
           x3                            V v V  v v v
Verse:
   Dm           C           Dm          F   C
1)------12-13--------12-8--------12-13---------------
2)-8h10---------8h10--------8h10---------------------
3)------------------------------------------5--5-5-5-
4)--------------------------------------3-3-5--5-5-5-
5)--------------------------------------3-3-3--3-3-3-
6)--------------------------------------1-1----------
                                        V v V  v v v 
Dm        C
Do you remember me
Dm         F        C
You can't see the things
Dm                 C
That make me who I am
Dm                  F  C
You'll never understand

Pre-Chorus:
                  Dm             Dm
And I gotta keep moving, you're living off my sweat
Dm           Dm
Moving, the devil's on my back
      Dm                       Dm
And these are the days that I dreamed about
           C       Am       A#
And you're always there to remind me

Chorus:
Dm      C Am  A#
You're my enemy
Dm           C      Am    A#
All that we had has gone away
  Dm       C         Am     A#
There are times that fade away
    Dm            C    Am  A# Dm Dm
But you'll still be my enemy

Verse:
Dm              C
The friend you had in me
Dm               F  C
You turned on so easily
Dm                  C
I'm sad to see you go
Dm              F  C
At least now I know

Pre-Chorus:
                  Dm             Dm
And I gotta keep moving, you're living off my sweat
Dm           Dm
Moving, the devil's on my back
      Dm                       Dm
And these are the days that I dreamed about
           C       Am       A#
And you're always there to remind me

Chorus:
Dm      C Am  A#
You're my enemy
Dm           C      Am    A#
All that we had has gone away
  Dm       C         Am     A#
There are times that fade away
    Dm            C    Am  A# Dm
But you'll still be my enemy
      Dm
My enemy

Bridge:
            Dm
And I see clearly now
              Dm
You tried to bleed me
           Dm
And I see clearly now
              Dm
You tried to feed on me

            Dm
And I see clearly now
              A#
You tried to bleed me
           Dm
And I see clearly now
              A#
You tried to feed on me

            Dm
And I see clearly now
              A#
You tried to bleed me
           Dm
And I see clearly now
              A#
You tried to feed on me

Chorus:
Dm      C Am  A#
You're my enemy
Dm           C      Am    A#
All that we had has gone away
  Dm       C         Am     A#
There are times that fade away
    Dm            C    Am  A# Dm
But you'll still be my enemy
      Dm Dm Dm
My enemy

Бой: V v ^ ^ v v v^
Наверх