Аккорды «Fu Manchu»

Fu Manchu
Прообраз этой южнокалифорнийской группы появился в 1987 году под названием "Virulence". Поначалу команда, состоявшая в то время из Кена Пуччи (вокал), Скотта Хилла (гитара), Грега МакКохи (бас) и Рубена Романо (ударные), нарезала хардкор в духе "Black Flag" и "Bl'ast". После выхода первого и единственного альбома "If This Isn't a Dream..." Пуччи уступил место Глену Чивенсу, а название группы изменилось на "Fu Manchu". В 1990-м на "Slap-a-Ham Records" вышел дебютный сингл, "Kept Between Trees".… Читать полностью... Прообраз этой южнокалифорнийской группы появился в 1987 году под названием "Virulence". Поначалу команда, состоявшая в то время из Кена Пуччи (вокал), Скотта Хилла (гитара), Грега МакКохи (бас) и Рубена Романо (ударные), нарезала хардкор в духе "Black Flag" и "Bl'ast". После выхода первого и единственного альбома "If This Isn't a Dream..." Пуччи уступил место Глену Чивенсу, а название группы изменилось на "Fu Manchu". В 1990-м на "Slap-a-Ham Records" вышел дебютный сингл, "Kept Between Trees". Его звучание сильно походило на творчество "Virulence", однако вскоре команда начала дрейфовать в сторону хард-рока образца 70-х. Грегу эта тенденция не понравилась, и он ушел, передав басуху Марку Эбширу. Где-то в это же время по непонятным причинам коллектив покинул Чивенс. Воспользовавшись моментом, Хилл присвоил себе еще и вокальные обязанности, а в качестве компенсации в состав был введен лидер-гитарист Скотт Вото. С этим товарищем "Fu Manchu" записали три сингла, после чего Вото уступил место бывшему барабанщику "Olivelawn" Эдди Глассу. Между тем, за истекший период группа успела обрести собственный саунд, сочетавший тяжелые риффы и психоделический настрой. Журнал "Rolling Stone" так описал звучание "фуманчистов": "super heavy and bass happy Detroit rock 'n' roll is totally deep-fried, fuzzed out, window breakin', pot sellin', sleepin-in-the-van, skater metal". К 1994 году командой начали интересоваться серьезные рекорд-компании и один из "мажоров" выделил музыкантам деньги на запись пробного демо. Однако "Fu Manchu" решили не распыляться и не заключать контракта, а использовали выделенное им студийное время на подготовку настоящего альбома. "No One Rides For Free" был издан небольшим независимым лейблом "Bong Load Custom", на котором вышел и второй полнометражник, "Daredevil". В промежутке между появлением этих пластинок свой пост оставил Марк Эбшир, а бас-гитара перешла к Брэду Дэйвису. В 1996-м коллектив подписался на "Mammoth Records", где дебютировал с работой "In Search Of...". Этот альбом стал последним для Гласса и Романо в составе "Fu Manchu". Оба музыканта присоединились к своему бывшему коллеге Эбширу и организовали с ним пауэр-трио "Nebula". Освободившиеся же вакансии в "FM" заняли бывший барабанщик "Kyuss" Брант Бьорк и гитарист Боб Балч, которые дебютировали на диске "The Action Is Go". К этому времени команда уже успела заработать хорошую концертную репутацию, поскольку ей довелось выступать с такими коллективами как "Kyuss", "Monster Magnet", "Marilyn Manson", "White Zombie", "Melvins", "Clutch" и "Corrosion of Conformity". В 1998-м фирма "Elastic" выпустила компиляцию ранних вещей "Return To Earth 91-93". Кроме того, композиции "Fu Manchu" вошли в сборники "Burn One Up!" и "Music from the X-Games Volume 3". На стыке тысячелетий появились и три программных работы, "Eatin' Dust", "King Of The Road" и "California Crossing". Все они были встречены достаточно тепло, что не помешало Бранту Бьорку возвестить об уходе из группы и начале сольной карьеры. Место за ударными досталось экс-участнику "Sunshine" Скотту Ридеру, чье имя появилось на первом официальном концертнике "Fu Manchu" "Go For It… Live!". Скрыть...
Популярные аккорды Fu Manchu:
алфавиту | просмотрам | случайно
  • Tuning: D Tuning (D-G-C-F-A-d)
    
    Bass Intro/Interludes
    
    F|-------------------------|------------------------|
    C|-------------------------|------------------------|
    G|---------------7--8--8---|--------3--0--3--5--7---|
    D|--3--5--5----5-----------|--3--5------------------|
    
    Verse(s)…
  • This is the main part
    e---------------------------------
    B---------------------------------
    G---------------------------------
    D-------------------------0-------
    A-----------------------8---3-0---
    E-0-0-0-0-8-10-0-8-10-0---------3-
    
    the…
  • Tuning:-all strings down a full step.
    
     eg(DGCFAD)
     
     
     Riff 1. Intro & Main Riff
    
     d|----------------------------------------------------------|
     A|----------------------------------------------------------|
     F|----------------------------------------------------------|…
  • Tune guitar down a whole step.
    
    Intro/Verses
    D----------------------------|
    A----------------------------|
    F----------------------------|
    C--9-9-7-9---------7-9-9-7-9-|
    G--7-7-5-7--5-5-5--5-7-7-5-7-|
    D-----------3-3-3------------|
    
    Chorus
    D---------------------|
    A---------------------|
    F---------------------|
    C--5-5--3-3-----------|
    G--3-3--1-1--5--5-5-5-|
    D------------3--3-3-3-|
    
    Next…
  • Gtr I (D G C F A D) - 'Rhythm Guitar 1'
    Gtr II (D G C F A D) - 'Rhythm Guitar 2'
    Gtr III (D G C F A D) - 'Solo Guitar'
    
     Intro
      Q=130
     4/4
      Gtr I                                                    Gtrs I, II…
  • Tuning:-all strings down a full step.
    
     eg(DGCFAD)
    
    
     Riff 1. (verse)
     
    
     d|---------------------------------------------------|
     A|---------------------------------------------------|
     F|---------------------------------------------------|…
  • Tune down one whole step
    
       Intro  
     d|----------------------|
     A|----------------------|
     F|----------------------|
     C|--6---9-8--9-8-9------| 
     G|--4---7-6--7-6-7------|
     D|----------------------|
    
    Verse (2 times)
     d|---------------------------------------------------------------------|…
  • 1.)
       RIFF 1 - play 3 times       				End RIFF 1
    
    e :-------------------------------------------------------------:
    B :-------------------------------------------------------------:
    G :--------------------------------6--8--6-----6--8b+r--6-------:
    D…
  • Tuning:-all strings down a full step.
    
     eg(DGCFAD)
     
     As with a lot of Fu Manchu songs, parts are often echoed
     by a second guitar, one octave higher.  I haven't bothered
     to tab these parts.
    
     Riff 1. Main Riff.…
  • Tuning:-all strings down a full step.
    
     eg(DGCFAD)
    
     
    
     Riff 1.  (intro and chorus)
     
     d|--------------------------------------------------------|
     A|--------------------------------------------------------|
     F|--------------------------------------------------------|…
  • . - p.m.-notes 
    
    TUNE DOWN ONE WHOLE STEP
    
    Intro                                   ending intro
    D:|-----------------------------------|-----------------------|
    A:|-----------------------------------|-----------------------|
    F:|-----------------------------------|-----------------------|
    C:|-5-5-5-5-5-5-5-5-5-5-5-5-5-5-5-5-3-|-----------------------|
    G:|-3-3-3-3-3-3-3-3-3-3-3-3-3-3-3-3-1-|-3--1---------1--3-----|
    D:|-----------------------------------|-------3--1------------|
    
    Verse…
  • Tuning:Standard
    
    Intro
    e|---------------------------------------------------------------------------|
    B|---------------------------------------------------------------------------|
    G|---------------------------------------------------------------------------|
    D|---------------------------------------------------------------------------|
    A|---------------------------------------------------------------------------|
    E|--33333-66666-55555-88888---x2---------------------------------------------|
    
    
    Chorus
    e|---------------------------------------------------------------------------|
    B|---------------------------------------------------------------------------|
    G|-------12-------12-------12------------------------------------------------|
    D|--5555-----8888----7777-----10101010--8-7----------------------------------|
    A|--5555-----8888----7777-----10101010--8-7----------------------------------|
    E|--3333-----6666----5555-----8-8-8-8---6-5----------------------------------|
    
    e|---------------------------------------------------------------------------|
    B|---------------------------------------------------------------------------|
    G|-------12-------15-------14------------------------------------------------|
    D|--5555-----8888----7777-----10101010--8-7----------------------------------|
    A|--5555-----8888----7777-----10101010--8-7----------------------------------|
    E|--3333-----6666----5555-----8-8-8-8---6-5----------------------------------|
    
    
    
    
    Verse
    e|---------------------------------------------------------------------------|
    B|---------------------------------------------------------------------------|
    G|---------------------------------------------------------------------------|
    D|--5555-----8888----7777-----10101010--8-7----------------------------------|
    A|--5555-----8888----7777-----10101010--8-7----------------------------------|
    E|--3333-----6666----5555-----8-8-8-8---6-5---------x2-----------------------|
    
    Breakdown?…
  • Tuning:-all strings down a full step.
    
     eg(DGCFAD)
    
    
     Riff 1.  (intro)
    
     d|------------------------------------------------------------|
     A|------------------------------------------------------------|
     F|------------------------------------------------------------|…
  • TUNE DOWN ONE WHOLE STEP
    
    Riff 1 - intro and verse
    D:|---------------------------------------|
    A:|---------------------------------------|
    F:|---------------------------------------|
    C:|---------------------------------------|
    G:|-5-5-5-5-3-3-3-3-----------------------|
    D:|-----------------3/5-5-5-5-5-5-5-5-----|
    
    Riff…
  • Tuning:-all strings down a full step.
    
     eg(DGCFAD)
     
     
     Riff 1. (intro & Chorus)
    
     d|--------------------------------------------------|
     A|--------------------------------------------------|
     F|--------------------------------------------------|…
  • . - stop the delay
     
    TUNE DOWN ONE WHOLE STEP
    
    Riff 1
    D:|------------------------------------------------------------------|
    A:|------------------------------------------------------------------|
    F:|------------------------------------------------------------------|
    C:|-7/9--9--9---7/9--9-9---7/9--9---7/9--9--9---7/9--5---------------|
    G:|-5/7--7--7---5/7--7-7---5/7--7---5/7--7--7---5/7----5-4-----------|
    D:|------.--.--------.-.--------.--------.--.---------------5-5h4-3--|
    
    Riff…
  • Tuning:-all strings down a full step.
    
     eg(DGCFAD)
     
     Between most riffs, the band play:- 
     
     d|--------------------|
     A|--------------------|
     F|--------------------|
     C|-------------3------|
     G|-5-----------1------|…
  • TUNE DOWN ONE WHOLE STEP
    
    Main riff
    
     only the 1.time
    D:|---------|--------------------------------------------------|
    A:|---------|--------------------------------------------------|
    F:|---------|--------------------------------------------------|
    C:|---------|-9---7------------------9---7---12-12-12----12--9-|
    G:|---------|-7---5---7---5-5--2-----7---5---10-10-10----10--7-|
    D:|---12---|---------5---3-3--0-------------------------------|
    
    Pre-chorus…
  • Tuning:-all strings down a full step then drop low D to C
    
     eg(CGCFAD)
     
     
     Riff.1 Intro & main riff 
            
     d|--------------------------------------------------|
     A|--------------------------------------------------|…
  • Tuning:-all strings down a full step.
    
     eg(DGCFAD)
    
    
     Riff 1. Intro
     
     d|----------------------------------------------------|
     A|----------------------------------------------------|
     F|--------------------------------------then-noodle---|…
  • Key: *= palm mute
         x= mute hit
         = slide
         w= whamy bar
    
    
    Intro:
    eI------------------------I  
    BI------------------------I  
    GI------------------------I  
    DI--3---------------------I 
    AI----5-3-0---------------I…
  • Tuning:-all strings down a full step.
    
     eg(DGCFAD)
    
     Riff 1. (intro & Verse)
    
     d|-------------------------------------------------|
     A|-------------------------------------------------|
     F|-------------------------------------------------|…
  • Tuning:-all strings down a full step.
    
     eg(DGCFAD)
    
    
     Riff 1a. (verse guitar 1.)
    
     d|------------------------------------------|
     A|------------------------------------------|
     F|------------------------------------------|…
  • Tuning:-all strings down a full step.
    
    Verseriff
     d|----------------------|
     A|----------------------|
     F|----------------------|
     C|----------------------| 
     G|-7\1010-7-7-7-7-7-----|
     D|-5\-8-8-5-5-5-5-5-----|
    
    Chorusriff…
  • Tuning:-all strings down a full step.
    
     eg(DGCFAD)
     
     
     Riff 1. Intro.
     
     There are about for different versions of the little
     lick after the chords...this is just one, so figure the
     rest out yourself, and swap…
  • . -p.m. - note 
    
    TUNE DOWN ONE WHOLE STEP
    
    Riff 1 - Intro and Pre-Chorus
    D:|----------------------------------|
    A:|----------------------------------|
    F:|------------------4-4-4-----------|
    C:|-6-(6)-----6-4-4--2-2-2--4-5-6----|
    G:|-4-(4)-----4-2-2---------2-3-4----|
    D:|----------------------------------|
    
    Riff…
  • Tuning:-all strings down a full step.
    
     eg(DGCFAD)
    
      Riff 1. (The first slide is optional)
    
     d|-------------------------------------------|
     A|-------------------------------------------|
     F|-------------------------------------------|…
  • Tuning:-all strings down a full step.
    
     eg(DGCFAD)
     
     
     Riff.1 Intro & main riff 
            (bass plays this for verse)
     
     d|--------------------------------------------|
     A|--------------------------------------------|…
  • Drop D
    
    E-----------------------------------------------------------|
    B-----------------------------------------------------------|
    G-----------------------------------------------------------|
    D---0----3-------3---5---5(12)---5---3---3------------------|
    A---0--------5--------------------------------5---—3—5------|
    D---0-------------------------------------------------------|
    
    E-----------------------------------------------|
    B-----------------------------------------------|
    G-----------------------------------------------|
    D---0----3------3---5---5(12)---5---3-----------|
    A---0-------5-----------------------------------|
    D—--0-------------------------------------------|
    
    E--------------------------------------------------------|
    B--------------------------------------------------------|
    G--------------------------------------------------------|
    D--------------------3-----------------------------------|
    A---3-/-5-5-5-5-5-------5—5-5-5--------------------------|
    D----------------------------------------5(1/4)—3-p-0----|
    
    E------------------------------|
    B------------------------------|
    G------------------------------|
    D---7--------5--------3---0----|…
  • TUNE DOWN ONE WHOLE STEP
    
    .- stop the delay
    
    Intro
    D:|----------------------------------------|
    A:|----------------------------------------|
    F:|----------------------------------------|
    C:|----------------------------------------|
    G:|-7-7-7-7-7-7-7-7-7-7-7-7-5-5-5----------|
    D:|----------------------------------------|
    
    also…
  • Tuning:-all strings down a full step.
    
     eg(DGCFAD)
    
    
     Riff 1. 
     
     d|------------------------------------------|
     A|---------------7----7---------------------|
     F|---------------9b11-9b11------------------|
     C|------12-12------------------7-9--9p7-----|…
  • Tuning:-all strings down a full step.
    
     eg(DGCFAD)
    
     Riff 1. (intro & Chorus)
    
     d|-------------------------------------------------------|
     A|-------------------------------------------------------|
     F|-------------------------------------------------------|…
  • Tuning:-all strings down a full step.
    
     eg(DGCFAD)
    
     Nice easy one with just two Riffs.....
    
     Riff 1. 
     
     d|-----------------------------------------------------------------|
     A|-----------------------------------------------------------------|…
  • Tune guitar down one whole step.
    
    Intro
    D---------------------------------------------------------------|
    A---------------------------------------------------------------|
    F---------------------------------------------------------------|
    C-----------------------------------------------------------5---|
    G--10-10-10-8--9-9--10-10-10-8--9-9--10-10-10-8--9-9--5-7-7---6-|
    D--8--8--8--6--7-7--8--8--8--6--7-7--8--8--8--6--7-7------------|
    
    Second…
  • Riff 1 - Intro and verse
    D:|----------------------------------|
    A:|----------------------------------|
    F:|----------------------------------|
    C:|--------5------------777888999----|
    G:|----5-7---7---7-5----777888999----|
    D:|------------------7--555666777----|
    
    Chorus
    D:|----------------------------------------------|
    A:|----------------------------------------------|
    F:|---------7--5-7b------------------------------|
    C:|--99---7-7--------(x3)--55555555-7777---------|
    G:|--99---7-5--------------55555555-7777---------|
    D:|--77---5----------------33333333-5555---------|
    
    Riff…
  • Gtr I (D# A D G B E) - 'Untitled'
    
     4/4
      Gtr I
    |------------------------------------------------------|
    |------------------------------------------------------|
    |------------------------------------------------------|
    |-5/7-7-7-7-------------------5/7-7-7-7----------------|
    |-3/5-5-5-5-7-6-5-----3-5-3---3/5-5-5-5-7-6-5-----3----|
    |-----------7-6-5-----3-5-3-------------7-6-5-----3----|…
  • Tuning:-all strings down a full step.
    
     Mainriff
     d|----------------------------------------------------|
     A|----------------------------------------------------|
     F|----------------------------------------------------|…
  • Tuning:-all strings down a full step.
    
     eg(DGCFAD)
    
     Every second playing of Riff 1 is accompanied by a short
     solo, and I have tabbed the first solo.  The last time it
     is played there is a double time feel for the…
  • Tuning:-all strings down a full step then drop low D
             down to C.
    
     eg(CGCFAD)
    
     
    
     Bass Intro
     
     F|--------------------------------------------------------|
     C|--------------------------------------------------------|…
  • TUNE DOWN ONE WHOLE STEP
    
    X - p.m.-note
    5~~ - bend the note
    
    Intro
    D:|-------------------------------------------------------------|
    A:|-------------------------------------------------------------|
    F:|-------------------------------------------------------------|
    C:|--------5-(5)---------5-(5)-5-5-5-5-5-5-5-5-5-5-5-5-5-5-5-5--|
    G:|-7-(7)--3-(3)--7-(7)--3-(3)-3-3-3-3-3-3-3-3-3-3-3-3-3-3-3-3--|
    D:|-5-(5)---------5-(5)-----------------------------------------|
    
    verseriff
    D:|---------------------------------------------------|
    A:|---------------------------------------------------|
    F:|----------------------------------------------5~~~-|
    C:|------5-X-X--------------------7-X-X----5-7-7------|
    G:|-7-7--3-X-X--------3------7-7--5-X-X---------------|
    D:|-5-5---------3-5-5---5----5-5----------------------|
    
    chorus…
  • Tuning:-all strings down a full step.
    
     eg(DGCFAD)
     
     
     Riff 1. Intro & Main Riff.
    
     d|--------------------------------------------------|
     A|--------------------------------------------------|
     F|--------------------------------------------------|…
  • Tuning:-all strings down a full step.
    
     eg(DGCFAD)
    
    
     Riff 1. Intro and Verse
     
     d|-------------------------------------------|
     A|-------------------------------------------|
     F|-------------------------------------------|…
  • Tune down to "Drop D" tuning, then tune your low E (which is now at D)  down to "C"
    
    
    D ---------------------- |---------------------------------------|
    A -----------------------|---------------------------------------|
    F…
  • Rhythm Figure 1:
    |----------------------------------------|
    |----------------------------------------|
    |----------------------------------------|
    |-7-7-7-9--9-9-9--9-9-9-9--9-9-9-9-------|
    |-7-7-7-9--9-9-9--9-9-9-9--9-9-9-9-------|
    |-5-5-5-7—-7-7-7--7-7-7-7--7-7-7-7-------|
    
    Rhythm…
  • Tuning:-all strings down a full step.
    
     eg(DGCFAD)
    
    
     Riff 1. (intro)
    
     bass or guitar with some serious  wah wah type shit going on!
    
     d|-------------------------------------------|
     A|-------------------------------------------|…
  • tuning - EADGBE
    
    
    INTRO 
    (bass):
    !------------------------!----------------------!
    !------------------------!----------------------!
    !------------------------!----------------------!
    !-3---------3-6--------6-!-3--------3--9--8--1--!…
Наверх