Аккорды «Fugazi»

Fugazi
Группа была образована в 1987 году в городе Вашингтон, США. Её основателем является крестный отец Straight Edge’а и по совместительству владелец лейбла Dischord - Ян МакКей (Ian MacKaye). Для Яна это была не первая группа, до Fugazi он играл в The Teen Idles, Egg Hunt, Minor Threat, Skewbald и Embrace. После развала его брутального хардкор бэнда Minor Threat он с третьей попытки в конце 80-х создал то, что стало неким эталоном звучания классического пост-хардкора. Этакий флагман андеграундной… Читать полностью... Группа была образована в 1987 году в городе Вашингтон, США. Её основателем является крестный отец Straight Edge’а и по совместительству владелец лейбла Dischord - Ян МакКей (Ian MacKaye). Для Яна это была не первая группа, до Fugazi он играл в The Teen Idles, Egg Hunt, Minor Threat, Skewbald и Embrace. После развала его брутального хардкор бэнда Minor Threat он с третьей попытки в конце 80-х создал то, что стало неким эталоном звучания классического пост-хардкора. Этакий флагман андеграундной непримиримой интеллигенции - Fugazi. Первоначально Fugazi представляли из себя трио: Ян МакКей – гитара, вокал; Джо Лолли (Joe Lally) – бас-гитара; Брендан Кэнти (Brendan Canty) – ударные, на первом диске выпущенной командой серии живых записей можно услышать группу в этом составе. Однако впоследствии в группе появился Гай Пицциотто (Guy Picciotto) – гитара, вокал. Гай уже успел поиграть в Rites Of Spring (вместе с Бренданом Кэнти), Insurrection и One Last Wish. Таким образом команду составили опытные музыканты. Fugazi не стали играть классический хардкор, а заиграли взрослый и экспериментальный арт-панк, с трудом вписывавшийся в какие-либо классификации. На группу оказали влияние такие коллективы как Hüsker Dü и NoMeansNo. Дав несколько удачных концертов в конце 1988-го года, группа выпускает EP под незатейливым названием «Fugazi». Слушателями EP был принят тепло. Особенно им понравились композиции «Waiting Room» и «Suggestion», ставшие своего рода визитной карточкой группы. В 1989 году выходит еще один EP – «Margin Walker». Позже, в 1990 году «Margin Walker» вместе с дебютным EP выходит на CD под названием «13 Songs», который приобрёл поистине легендарный статус. Первый же LP группа выпустила в 1990 году. Он получил название «Repeater». Слушателями альбом был принят на ура, хотя некоторые еще и сомневались в молодой команде. Но эти сомнения были рассеяны с выходом «Steady Diet Of Nothing» в 1991 году. Альбом вышел менее разнообразным по звучанию по сравнению с «Repeater», но, тем не менее, впоследствии был признан классическим, и является любимым у многих фанатов Fugazi. 90-е годы. В музыке наступает так называемый «Великий Перелом». Nirvana записывает свой альбом «Nevermind» и андеграундная музыка тут же попадает в мейнстрим. Мейджор лейблы очень интересуются Fugazi, предлагая ребятам солидные контракты, но парни отклоняют все предложения и остаются на Dischord. Тогда поступает предложение о покупке всего лейбла сразу, естественно, следует отказ. В 1993 году выходит новый альбом группы под названием «In On The Kill Taker», на котором агрессивность саунда заметно возросла, а политкорректность текстов значительно поубавилась. «In On The Kill Taker» попадает на двадцать четвёртое место в британский музыкальный парад. И это при полном отсутствии рекламы и мэйджорной дистрибьюции. К этому времени Fugazi уже добились значительной популярности, в первую очередь, благодаря своим эмоциональным выступлениям. Особенно зрителям нравилось то, что вытворял на сцене Гай Пицциотто. Его эмоциональную неистовую манеру поведения сложно было спутать с чей-то еще. Что примечательно, билеты на концерт группы стоили не дороже пяти долларов, а альбомы группы не дороже десяти. Кроме того, на концертах отсутствовало ограничение по возрасту, а также запрещалась продажа спиртных напитков и сигарет. На концертах группа пыталась держать поведение публики в определённых рамках: в случае беспорядков они прекращали играть, и Ян предлагал самым отмороженным вернуть деньги, лишь бы они покинули концерт. В 1995 году выходит «Red Medicine». Альбом получился весьма мелодичным и разнообразным - на нём были представлены элементы и даба, и хаотичного нойз-рока, и пара номеров в духе старого доброго хардкора. Эксперименты со звучанием получили логическое продолжение в новом релизе группы под названием «End Hits», который вышел в свет 1998 году. Пауза между релизами в три года была связана с большой загруженностью Яна на Dischord. С выходом «End Hits» группа возобновила концертную деятельность. В 1999 году выходит документальный фильм «Instrument», в который вошли концертный материал, интервью, записи с сессий и репетиций. В этом же году выходит и саундтрек к «Instrument» на CD. Последняя на данный момент запись группы вышла в 2001 году. Вышли полноценный альбом «The Argument» и EP «Furniture». Отдельное издание было по-видимому вызвано стилистическим различием между работами: ЕР содержал привычное слушателям звучание (заглавный трек исполнялся ещё на первом концерте коллектива), а альбом получился удивительно мелодичным и красивым, хотя это, несомненно, были всё те же Fugazi. После выхода «The Argument», повсеместно признанного одной из лучших записей в дискографии коллектива, музыканты стали больше внимания уделять своей деятельности вне Fugazi. В 2002 году команда объявила о прекращении деятельности на неопределённый срок. МакКей занят в Dischord, где кроме Fugazi издаются LungFish, BlueTip, Faraquet и Q And Not U. Также Ян занят проектом Evens, в котором он играет на гитаре, а Эми Фарина (Amy Farina) из The Warmers стучит на барабанах. Вокальные партии исполняют оба участника группы. У The Evens есть два релиза: «The Evens» (Март, 2005) и «Get Evens» (Ноябрь, 2006). Ян и Гай занимаются продюсированием других команд. Что касается Джо, то он, по примеру Яна, основал свой лейбл Tolotta, занимающийся релизами группы Spirit Caravan и сайд-проектам её участников. Скрыть...
Популярные аккорды Fugazi:
алфавиту | просмотрам | случайно
  • The key of the original song is just a tiny bit flat of standard guitar tuning (less 
    than a half step).
    
    
    G     B     Em   C                G
      Out here       barely see my breath
        B   Em    C               G
    Surrounded…
  • MAIN GROOVES 
    
    G-------------------------||----------------------|| 
    D-5---------------5---5-7-||-5------------/7-5----|| 
    A---5---5--5-7--7---7-----||---5---5--5-7-------7-|| 
    E-----5-------------------||-----5----------------||…
  • Intro/Main riff:
              G|------------2---------|
              D|-0-2-3-4-44---4-------|
              A|----------------4-444-|
              E|----------------------|
              
              Verse:
              G|-----------------------------|…
  • Intro -
     G| -----------------|-----------------|
     D| -----------------|-----------------|
     A| -----------------|-----------5-----|
     E| ---7-7-7-2-2-2-2-|-5-5-5-5-5---5---|
             Play this part times, then play...
    
     G|…
  • This is the main bass line played throughout the song:
    G-|---------------------------------------------------------
    D-|------------------------------------------------------3-
    A-|---------------------1--------------------------1------
    E-|--3-3-5p3-1-3-3--3-1--3-3-5p3-1-3-3--3----
    
    This…
  • Standard Tuning
    
    Intro/Verses
    
    ------------------------------------------------------------------------
    ------------------------------------------------------------------------
    ------------------------------------------------------------------------
    ---------5--------------------------------------------------------------
    -----3p0----------------------------------------------------------------
    -----------333322-------------------------------------------------------
    
    
    Then:
    
    ------------------------------------------------------------------------
    ------------------------------------------------------------------------
    --9-9-9/7-7-7-6-6-6/4-4-4-----------------------------------------------
    --9-9-9/7-7-7-7-7-7/5-5-5----------------------------------------------
    --7-7-7/5-5-5-7-7-7/5-5-5-----------------------------------------------
    --------------5-5-5/3-3-3-----------------------------------------------
    
    The…
  • 00:00 - 00:18)
    e|--------------------------------------|
    b|-------3^-----------------------------|
    g|-------3^-----------------------------|
    d|--5-5-----5-5--x-x-x-x----------------|
    a|--5-5-----5-5--x-x-x-x----repeat------|
    e|--3-3-----3-3--x-x-x-x----------------|
    
    (00:18…
  • At the beginning, it's like this:
    
    ---------------------------------
    -----3-----2---0-----0-----2---3-
    ---------------------------------  (repeat many times)
    -2-2---2-2---2---2-2---2-2---2---
    ---------------------------------
    ---------------------------------
    (let…
  • Tune guitar down one step
    
    key:
    ~   : slide
    p   : pull-off
    h   : hammer-on
    h~p : hammer on and pull off
    
    
    Intro/Verse:
    time (00:36 to 00:58 && 01:11 to 01:24)
    e---------7~3-|---------7---------7~3~2--------
    B-8-----------|-8---------8--------------------
    G---7---7-----|---7---7-----7---7--------------
    D-----9-------|-----9---------9----------------
    A-------------|--------------------------------
    E-------------|--------------------------------
    
    
    
    time…
  • verse 1
    G-------------------------------------------
    D-------------------------------------------
    A------------3-3-3-3-3-----------1-1-1-1-1--  x3
    E--1-1-1-1-1-----------4-4-4-4-4------------
    
    verse 2
    G------------------------------------------------
    D------------------------------------------------
    A--4-4-4-4-4-7-7-7-7-7-9-9-9-9-9-12-12-12-12-12--…
  • Bass (Main Part:)
    G------------------|
    D-----------8-9-10-|
    A-----9-7-8--------|
    E---9--------------|
    
    
    GUITAR 1
    at first just something messing around with the high 'e' and the pick-up switch
    e---(12)-------|
    B--------------|
    G--------------|
    D--------------|
    A--------------|
    E--------------|
    
    
    Riff…
  • Intro (0:05):
    
    	  Guitar 
    	G|------|-----------|
    	D|------|-----------|
    	A|------|-------00--|
    	E|------|--00022----|
    
    Verse (0:07):
                                       x7
    	G|---------------------------|
    	D|---------------------------|
    	A|--222-------222--------00--|
    	E|--------222-------00022----|
    
    ChorusA…
  • (This is only the louder guitar not the one in the background)
    Here's the intro-
    e |-----------------------------------|
    B|------------------------------------|
    G|--14--12--11--9--7---5---4----------|
    D|--X---X---X--X--X---X--X------------|
    A|--12--10--9---7--5---3---2----------|
    E|------------------------------------|
    Here's…
  • / = Oh you know...
    ^  = Pull off
    
    
    B|----------------------|----------------|
    G|--5/7-7---------------|--5/7-7---------|
    D|--5/7---7777-7^5------|--5/7--7--------| --(that 7)
    A|--3/5-----------7-----|--3/5---5-------|…
  • Standard Tuning
    
    
    
    Intro:
    Guy Picciotto (Guitar R)
              * pick double time
    e|------------------------------------------------||
    B|----------------------------13----13\12-12/13-13||
    G|-------------0--0--0--------x-----x--x--x--x--x-||…
  • intro (bass/guitar):
    
    e-----------------------------
    B-----------------------------
    G----------------------------- (3 times)
    D--2~5-4-2-4------------------
    A----------2-0---2~5-4-2-4----
    E--------------------------0--…
  • Intro riff (played through verse as well):
    
    e--2-----4-----4--2-----0-----0---
    B----4-----4--------4-----4-------
    G------4-----4--------4-----4-----
    D---------------------------------
    A---------------------------------
    E---------------------------------
    
    Verse…
  • INTRO 1
    E|-9-12--9-12-9------9--12h9--------|
    B|--------------9h10-------10-10-9--|
    G|--------------------------------9-|
    D|----------------------------------|
    A|----------------------------------|
    E|----------------------------------|
    
    INTRO…
  • Tuning: Standard
    
    ************************************
    
    | /   slide up
    | \   slide down
    | ~   vibrato
    | +   harmonic
    | x   Mute note
    | //  Tremolo picking
    | h.b Hold bend
    | ()  Ghost note
    | b   Bend
    | pb  Pre-bend
    |…
  • Verse
    G:----------------------------|---------------------
    D:----------------------------|----------------5-7--
    A:---------3-3-3-2-0-2-0-2-0--|--------3-3-3-2------
    E:--5-55-3--------------------|-5-55-3--------------
    
    Riff
    G:--------------------------|---------------------
    D:--------------------------|----------------5-7--
    A:-------3-3-3-2-0-2-0-2-0--|--------3-3-3-2------
    E:--55-3--------------------|-5-55-3--------------
    
    Variation…
  • A
    ---0*--------------------------------------------------------------------------|
    ---x---------------------------------------------------------------------------|
    ---9---------------------------------------------------------------------------|
    ---7---------------------------------------------------------------------------|
    ---0---------------------------------------------------------------------------|
    -------------------------------------------------------------------------------|…
  • INTRO:
                G     G F      G
    e|-----------------------------|
    B|-----------------------------|
    G|-----------------------------|
    D|--0-----0--------------------|
    A|--0-----0-5-----5\3------2---|
    E|----------3-----3\1------3---|…
  • Chords:
    A - x02220
    Em - 022000
    F#m - 244222
    
    Rhythm guitar
    Standard Tuning: EADGBe
    
    Intro/Preferred chorus/Post Verse: Played as A repeatedly 24 times (This is palm muted)
    
    Verse: F#m to Em (This is also palm muted)
    
    Lead…
  • B|------------|-----------|-----------|--------------|
    G|------------|-----------|-----------|--------------|
    D|------------|-----------|-----------|--------------| x2
    A|-5-4-5--7---|-5-4-5--7--|-5-4-5--7--|------------7-|
    E|---------7--|---------7-|---------7-|-7\5---5\7--0-|
    
    
    
    then...
    
    B|--------------|-------------|---------------|
    G|--------------|-------------|---------------|
    D|--------------|-------------|---------------|
    A|-5-4/7\4-5----|-5-4/7\4-5---|-5-4/7\4-5-----|
    E|-----------7--|----------7--|-----------7-7-|…
  • intro: harmonics on E string. pick E string repeatedly while running finger 
          up and down it.(this is done under the chords of the verse)
    
    start main riff: F#  E
    
    verse 1:
    F#       E   F#      E           F#…
  • Intro -  (guitar)
     G| ------------------------|---------------5s7-7-7--|
     D| ------------------------|---------------3s5-5-5--|
     A| ------------------------|------------------------|
     E| ------------------------|------------------------|…
  • Intro:
    e: |------------------------|--------------|
    B: |------------------------|--------------|
    G: |------------------------|--------------|
    D: |------------------------|--------------| *5
    A: |-------8-7------3h5-3h5-|-------8-7----|
    E:…
  • Guitar 1
    e----------------------------------|
    B----------------------------------|
    G-----------------6-6-6------------|
    D------8-8-8----------------4--10--|
    A------------6-6-6-------------8---|
    E-6-6-6-----------------2-2--------|
    Guitar…
  • Verse (Palm muted)
    
    ----------------------------------|
    ----------------------------------|
    ----------------------------------|
    ----------------------------------|
    --4-4-4-4-4-4-4-6-6-6-6-6-6-6-6---|
    ----------------------------------|
    
    Chorus
    E5-D5-C#5
    
    Post-Chorus…
  • Verse
    
    G-9-9-------9-9-------9-9----------------|
    D-----7---------5---------9-----7h9-7h9--|
    A----------------------------------------|
    E----------------------------------------|
    
    Chorus
    
    G---------------------------|
    D-9-9-9-9-7-----------------|
    A-------------10-10-10-10-9-|
    E---------------------------|
    
    Break
    
    G------------------------|
    D------------------------|
    A----9----9----9----9----|
    E------------------------|
    
    Bridge
    
    G-----------------------------|
    D-----------------------------|
    A---7---7h9-9-----7---7-9-9---|
    E-9---9-------9-9---9-------9-|…
  • G:----------------------------------
    D:----------------------------------
    A:-----7-7-5-5----------7-7-5-5------
    E:-0-0---------7-7--0-0---------0-0--
    
    then it goes higher like this:
    
    
    G:-----------------------------------
    D:-----7-7-5-5----------7-7-5-5------
    A:-0-0---------7-7--0-0---------0-0--
    E:-----------------------------------
    
    after…
  • E|---------------------------------|
    B|---------------------------------|
    G|---------------------------------|
    D|-xxxxxxxxxxxxxxxxxxxxxxxxxxxxxxxx|
    A|-xxxxxxxxxxxxxxxxxxxxxxxxxxxxxxxx|
    E|---------------------------------|
    
    
    E|-----------------------------------------------|
    B|-----------------------------------------------|
    G|-----------------------------------------------|
    D|----------------10-10-10-10-10-10-10-----------|
    A|-11-------------8--8--8--8--8--8--8------------|
    E|-9--0-0-9--9-0---------------------------------|
    
    
    E|-------------------------------------------------------|
    B|-------------------------------------------------------|
    G|-------------------------------------------------------|
    D|-------------------------------------------------------|
    A|-11--------------------------------------------10-12---|
    E|-9--0--8-11-10--8-10-11-10--8-10-11-10--8-10-11--------|…
  • (/) Slide Up  () Slide Down  (h) Hammer On  (p) Pull Off  (b) Bend (r) Release (v) Vibrato
    
    Intro and Verse: 00:00 - 00:31
    E|-------------------------|
    B|-------------------------|
    G|-------------------------| *let…
  • Drop D#
    1. intro
    
    -x--x--x--x--x--x-x-x-x-x-x-x
    -x--x--x--x--x--x-x-x-x-x-x-x
    -4--4--4--4--4--x-x-x-x-x-2-2
    -4--4--4--4--4--x-x-x-x-x-2-2
    -2--2--0--2--2--0-4-4-4-4-0-0
    -x--x--x--x--x--x-2-2-2-2-x-x   
    
    2 main
    
    -x--x--x--x--x--x--x--x--x--x
    -x--x--x--x--x--x--x--x--x--x
    -x--x--x--x--x--x--x--x--x--x
    -4--4--0--x--x--x--3--3--3--0
    -2--2--0--5--5--0--1--1--1--0
    -x--x--x--3--3--0--x--x--x--x
    
    
    
    3.…
  • ### INTRO ###
    e|-------------------------|--||
    h|--------(radio noise)----|--||
    g|-------------------------|--||
    d|-12-------12-12----------(4x)|
    a|-------------------------|--||
    e|-------------------------|--||
    
    Part…
  • Main Riff
    
    E|-------------|-----------|-------------|-------------|
    B|-------------|-----------|-------------|-------------|
    G|-------------|-----------|-------------|-------------|
    D|-------------|-----------|-------------|-------------|
    A|-------4-4-4-|-5~--------|-------4-4-4-|-5-5-5-4-~---|
    E|-0-0-0-------|-----------|-0-0-0-------|-------------|
    
    Pre-verse
    
    E|---------|---------|---------|--------|
    B|---------|---------|---------|--------|
    G|---------|---------|---------|--------|
    D|-9-9-9-9-|---------|---------|-#-#-7~-|
    A|-7-7-7-7-|-7-7-7-7-|-9-9-9-9-|-#-#-7~-|
    E|---------|-5-5-5-5-|-7-7-7-7-|-#-#-5~-|
    
    Verse…
  • 1. Opening/Verse
    
    e----x--x--x--x--x--x-x-x-x-x-x-x
    b----x--x--x--x--x--x-x-x-x-x-x-x
    g----4--4--4--4--4--x-x-x-x-x-2-2
    d----4--4--4--4--4--x-x-x-x-x-2-2
    a----2--2--0--2--2--0-4-4-4-4-0-0
    e----x--x--x--x--x--x-2-2-2-2-x-x…
  • b - bend
    r - return bend
    (21) - sustaned note
    ~ - vibrato
    pm - palm mute
    
    intro (there is alot of background noise but this is how i play it)
    -----
    e]----------------------|
    b]----------------------|
    g]-20b-(21)r-(20)b-21~~-|
    d]--x---------------x---|
    a]-18b-(19)r-(18)b-19~~-|
    e]----------------------|
    
    verse…
  • VERSE 
    
    G--------------------------| 
    D----------------7-8-7-----| 
    A-----------------------7--| 
    E-3-0-0-2-0-0-6------------| 
    
    CHORUS 
    
    G-----------------------------------| 
    D-----------------------------------| 
    A-(6)-7--711-----7-7------------9--|…
  • Intro:
    (repeat 4 times)
    |-------------------------|-------------------------|-------------------------
    |-------------------------|-------------------------|-------------------------
    |-------------------------|-------------------------|-------------------------
    |-12-12-12-12-12-12-12-12-|-12-12-12-12-12-12-12-12-|-10-10-10-10-10-10-10-10-
    |-10-10-10-10-10-10-10-10-|-0--0--0--0--0--0--0--0--|-12-12-12-12-12-12-12-12-
    |-------------------------|-------------------------|-------------------------
    
    |-------------------------
    |-------------------------
    |-------------------------
    |-10-10-10-10-10-10-10-10-
    |-10-10-10-10-10-10-10-10-
    |-------------------------
    
    throughout…
  • Tuning: EADGBE
       Ian               continue through intro and verse
    e|------------------|
    B|------------------|
    G|------------------|
    D|---222222222222*--|
    A|------------------|
    E|------------------|
        Guy   Intro
    e|-----------------------------------------------------------------------------|
    B|-----------------------------------------------------------------------------|
    G|-----------------------------------------------------------------------------|
    D|-----\888888888----\8888888-------\88888bbb10--------------------------------|
    A|-----------------------------------------------------------------------------|
    E|-----------------------------------------------------------------------------|…
  • e-/--x--x--x--x--x--x--x--x--x--x--x--x--/
    B-/--x--x--x--x--x--x--x--x--x--x--x--x--/
    G-/--x--x--x--x--x--x--x--x--x--x--x--x--/
    D-/--x--x--x--5--x--x--x--5--x--x--x--5--/
    A-/--x--x--x--x--x--x--x--x--x--x--x--x--/
    E-/--x--x--x--x--x--x--x--x--x--x--x--x--/
    
    G…
  • VERSE 
    
    G------------------------------| 
    D--------5-3--3-3-3------------| 
    A------------------(0)-3-3-3-0-| 
    E-3-3-3------------------------| 
    
    BREAK                     CHORUS 
               3x 
    G------------|--------| |--------------|…
  • p=pull-off
    h=hammer(awww yEah)-on
    
    
    e|------11-11-11-11h12p11--|------11-11-11-11h12p11--|
    B|-12-12-------------------|-12-12-------------------|
    G|-------------------------|-------------------------|
    D|-------------------------|…
  • Verse:
    
    e|-----------------------------------------|
    B|-----------------------------------------|
    G|-----------------------------------------|
    D|------------------0-3--6-3-6-3-6-6-------|
    A|0-0-0-0-0-0-00000------------------------|
    E|-----------------------------------------|…
  • Intro
    Verse with Exit A
    Verse
    Prechorus
    Chorus 1
    Break
    Verse
    Prechorus
    Buildup
    Chorus 2
    Outro
    
    BASS
    
    Intro - play part 1 of verse twice
    
    
    Verse part 1 (intro)
    |------------------|------------------|
    |------------------|---------4-4-4-4--|
    |-5-5-5-5-4-4-4-4--|-5-5-5-5----------|
    |------------------|------------------|
    
    Verse…
  • Tuning:standard
    
    Intro/verse
    e|------------------------------------------------------------------------|
    B|------------------------------------------------------------------------|
    G|------------------------------------------------------------------------|
    D|-4---4-----4---4--------------4---4-------------4---4------------4---4--|
    A|-2---2-----2---2--------3-0-2-2---2-------3-0-2-2---2------3-0-2-2---2--|
    E|-2---2-----2---2--333-7-------2---2-333-7-------2---2-333-7------2---2--|
    
    
    e|--------------------------------------|
    B|--------------------------------------|
    G|--------------------------------------|
    D|-------------6---6-------------4---4--|
    A|-------3-0-4-4---4-------3-0-2-2---2--|
    E|-333-7-------4---4--333-7------2---2--|
    
    Chorus
    e|----------------------------------------|
    B|----------------------------------------|
    G|-99999999999999-7777--999999999999999---|
    D|-99999999999999-7777--999999999999999---|…
  • GUITAR:	 E (C Barre Chord)
    (Arpeggio)
    	-4------------------------4---4------------------------e
    	-5------------------5---5-------5---5------------------b
    	-4------------4---4---4-----4-----4---4---4------------g
    	-6------6---6---6-----------------------6---6---6------d
    	-7----7---7-----------------------------------7---7----a
    	-0--0----------------------------------------------(0)-e
    
    
    BASS:	E
    (Arpeggio)
    	------------------------1---1-----1----------------------
    	------------------2---2---2---2-2---2-----2--------------
    	------------2---2---2-----------------2-2---2---2--------
    	--0-0-4-0-4---4-------------------------------4---4-0-0-0
    
    GUITAR…
  • Riff 1
    |------------------------------------------------------------------------------|
    |------------------------------------------------------------------------------|
    |------------------------------------------------------------------------------|
    |-9-------9///---10------10///-------------------------------------------------|
    |-7-------7///---7-------7-///-------------------------------------------------|
    |---0-0-0-------------0-0-0----------------------------------------------------|
    
    Riff…
  • Intro
    e---------------------|
    B---------------------|
    G-7-9---9-------------|
    D-7-9-9-9-------------|
    A-5-7-9-7-------------|
    E-----7-7-------------|
    
    Verses(0:15)
    Palm Muted
    e---------------------------------|
    B---------------------------------|
    G-----------------------------9-9-|
    D-----------------------------x-x-|
    A-5-5-5-7-7-7-7-------7--7----7-7-|
    E---------------7-7-7--7--7-------|
    
    Chorus(0:45)
    e------------------|
    B------------------|
    G-6--4-------------|
    D-x--x-------------|
    A-4--2-------------|
    E------------------|
    
    Post-Chorus(1:05)(this…
  • INTRO 2x
    e|---------------------------------------------------------------------------|
    B|---------------------------------------------------------------------------|
    G|----3-----3-----3----------------------------------------------------------|
    D|----3-----3-----3-------3>--hold--and--------------------------------------|
    A|----1-----1-----1-------3>-----bend----------------------------------------|
    E|------------------------1--------------------------------------------------|
    
    VERSE…
  • Intro :
       D"
    e--0--------------------------------------------
    B--3---3-----3-----3b4r3------------------------
    G--2-----2-----2---2b3r2--0-----0-0-------0-0---
    D--4-4-----4-----4----------2-0-----2-0-0-----2-
    A--0--------------------------------------------
    E-----------------------------------------------
    
    Verse…
  • Tuning: Standard
    
    Intro, with lots of scraping & harmonics etc. etc.
    e|-----------------------------------------0---------------|
    B|-----------------------------------------0---------------|
    G|---------x-x-x-x-x---------------x-x-x-x-0---------------|
    D|-3---4---x-x-x-x-x---a…
  • This is a version for one guitar. A few noises are left out therefore,
    but it is quite recognisable this way.
    
    Riff 1:
    
        1 +  2  + 3   4   +                    1  +  2 + 3  +  4   + 
    E-|-5--5-x--5-----0------|play…
Наверх