Аккорды Fun Mode - Ледовое побоище

Добавлено: @romashka
Дата добавления: 15 Февраля 2022г.
Рейтинг:
0.0
Просмотров: 242
Транспонировать - +
[Вступление]:
1)--------------------------
2)--------------------------|
3)-7-7--8-8--5-5--4--7-5-3--|
4)-7-7--8-8--5-5--4-------7-|х4
5)-5-5--6-6--3-3--2---------|
6)--------------------------/

1)----------------------
2)------------------------|
3)-7--8--9-9---7--8--5----|
4)-7--8--9-9---7--8--5----|
5)-5--6--7-7---5--6--3----|
6)------------------------|
                          |X2
1)------------------------|
2)------------------------|
3)-7--8--9-9---11--9-7-5--|
4)-7--8--9-9---11--9-7-5--|
5)-5--6--7-7---9---7-5-3--|
6)----------------------/
[Куплет 1]:
D5       D#5   E5
Морозный ветер воет
D5    D#5    C5
Земля родная стонет
D5     D#5    E5    D5   D#5    C5
Вновь крестоносцы терзают род людской 
Князь войско собирает  
И к битве призывает
За все ответит враг на озере Чудском

[Бридж]:
G5          A5        H5
Выбран час когда были слабы
H5             G5
Из-за нападков монгол
Шлем с рогами несется сквозь снег
И доносится грохот подков

[Припев]:
D5      D#5      E5      D5     D#5    C5
Кто к нам с мечем придет тот от меча погибнет
D5    D#5     E5    D5   E5   F#5
На этом сотни лет Русь стояла вся
И по до льдом последний из тевтонцев сгинет
На дно утянет захватчика врага

[Куплет 2]:
Гремят мечами воины
А русичи спокойны
Лед затрещал под латною ордой
Кто-то бежал из битвы 
Кто-то читал молитвы
Но основное войско скрылось под водой

[Припев]:
Кто к нам с мечем придет тот от меча погибнет
На этом сотни лет Русь стояла вся
И по до льдом последний из тевтонцев сгинет
На дно утянет захватчика врага 

Наверх