Аккорды Fun. - We Are Young

Добавлено: @romashka
Дата добавления: 04 Апреля 2018г.
Рейтинг:
0.0
Просмотров: 141
Транспонировать - +
Intro (Clean)
--------------------------------|
--------------------------------|
--10---7----12----7----9--------|
--10---7----12----7----10-------| x2
--8----5----10----5----7--------|
--------------------------------|

Pre Chorus (Clean)
--------------------------------|
--------------------------------|
--7---9----14--10-7---7----9----|
--7---10---14--10-7---7----10---|
--5---7----12--8--5---5----7----|
--------------------------------|

Chorus (Distortion)
------------------------------------------------------------------|
------------------------------------------------------------------|
--10-------9--------7-------7--9--10----3--------5--------9-------|
--10(x14)--10(x2)---7(x12)--7--10-10----3(x16)---5(x8)----10(x8)--| x2
--8--------7--------5-------5--7--8-----1--------3--------7-------|
------------------------------------------------------------------|

Verse (Distortion)
----------------------------------------------------------------------|
----------------------------------------------------------------------|
--1010---1010---10-9----7-------12-12----12-12----3------5--7--9--12--|
--1010---1010---10-10---7(x16)--12-12----12-12----3(x8)--5--7--10-12--|
--8-8----8-8----8--7----5-------10-10----10-10----1------3--5--7--10--|
----------------------------------------------------------------------|

Chorus (Distortion)
------------------------------------------------------------------|
------------------------------------------------------------------|
--10-------9--------7-------7--9--10----3--------5--------9-------|
--10(x14)--10(x2)---7(x12)--7--10-10----3(x16)---5(x8)----10(x8)--| x2
--8--------7--------5-------5--7--8-----1--------3--------7-------|
------------------------------------------------------------------|

Bridge (Distortion)
--------------------------------|
--------------------------------|
--10-10---3--3----10-10---5--5--|
--10-10---3--3----10-10---5--5--| x2
--8--8----1--1----8--8----3--3--|
--------------------------------|

---------------------------------|
---------------------------------|
--10-------3--------10-------5---|
--10-------3--------8--------5---| x2
--8--------1--------8--------3---|
---------------------------------|

Chorus (1st time through is clean and 2nd time is distortion)
------------------------------------------------------------------|
------------------------------------------------------------------|
--10-------9--------7-------7--9--10----3--------5--------9-------|
--10(x14)--10(x2)---7(x12)--7--10-10----3(x16)---5(x8)----10(x8)--| x2
--8--------7--------5-------5--7--8-----1--------3--------7-------|
------------------------------------------------------------------|

Ending (Clean)
-----------------------------------|
-----------------------------------|
--7---9----14--10-7---7----9-------|
--7---10---14--10-7---7----10---3--|
--5---7----12--8--5---5----7----3--|
--------------------------------1--|
Наверх