Аккорды Gыndul Мыцеi - Письмо

Добавлено: @romashka
Дата добавления: 06 Сентября 2022г.
Рейтинг:
0.0
Просмотров: 70
Транспонировать - +
Вступление:
   Bm        A   G
B||-7---------------|-5---------------|-3----------------|--------3-----|
G||-----------------|-----------------|------------------|-0------------|
D||-----0---------0-|-----0---------0-|-----0----------0-|-0------------|
A||---5---5-----5---|---4---4-----4---|---2---2------2---|-2------------|
E||-7---------7-----|-5---------5-----|-3----------3-----|-3------------|

B||-7---------------|-5---------------|-3----------------|--------3-----|
G||-----------------|-----------------|------------------|-0--------0---|
D||-----0---------0-|-----0---------0-|-----0----------0-|-0----------0-|
A||---5---5-----5---|---4---4-----4---|---2---2------2---|-2------------|
E||-7---------7-----|-5---------5-----|-3----------3-----|-3------------|

 Bm            A      G
 Я долго не знал, о чем написать.
 Bm            A      G
 Ты часто мне снишься - тебя не узнать.
 Bm            A      G
 В той части Вселенной, где ветер и снег,
 Bm            A      G
 Я снова с тобой совершаю разбег

       Bm A           G 
 Через бо-оль наших слез, наших глаз.
       Bm A           G 
 Подожди, я схожу здесь с ума без тебя, каждый раз.

 Bm            A      G
Здесь также всю ночь не гаснут огни,
 Bm            A      G
И словно в бреду повторяются дни.
 Bm            A    G
И снова зима - вокруг никого.
 Bm            A      G
Прощай, не скучай. Напиши для чего

       Bm A           G 
 Через бо-оль наших слез, наших глаз.
       Bm A           G 
 Подожди, я схожу здесь с ума без тебя, каждый раз.
       Bm A           G 
 Через бо-оль наших слез, наших глаз.
       Bm A           G 
 Подожди, я схожу здесь с ума без тебя, каждый раз.

Кода = Вступление:
   Bm        A   G
B||-7---------------|-5---------------|-3----------------|--------3-----|
G||-----------------|-----------------|------------------|-0------------|
D||-----0---------0-|-----0---------0-|-----0----------0-|-0------------|
A||---5---5-----5---|---4---4-----4---|---2---2------2---|-2------------|
E||-7---------7-----|-5---------5-----|-3----------3-----|-3------------|

B||-7---------------|-5---------------|-3----------------|--------3-----|
G||-----------------|-----------------|------------------|-0--------0---|
D||-----0---------0-|-----0---------0-|-----0----------0-|-0----------0-|
A||---5---5-----5---|---4---4-----4---|---2---2------2---|-2------------|
E||-7---------7-----|-5---------5-----|-3----------3-----|-3------------|
Наверх