Аккорды Gыndul Мыцеi - Numai Tu

Добавлено: @romashka
Дата добавления: 06 Сентября 2022г.
Рейтинг:
0.0
Просмотров: 21
Транспонировать - +
Bass tabs:
Intro
17---7---7---7---7---7---7---7--- s.a.m.d
2--7---7---7---7---7---7---7---7-
VERSE/CHORUS
37---7---7---7---5---5---2---2--5-
4--7---7---7---7---5---5---2---2--

2---5-5-9-9-5-5---5-5-9-9-5-5-
37-7-----------7-7------------
 
2---4-4-7-7-4-4-------4-4----
35-5-----------2-2-5-5---5-5-
Наверх