Аккорды Glass Animals - Take A Slice

Добавлено: @romashka
Дата добавления: 15 Сентября 2020г.
Рейтинг:
0.0
Просмотров: 75
Транспонировать - +
[Интро]
B Abm 
B Abm 
B Abm 
A Abm

    B        Abm         B              Abm
e |-------------------------------------------|
B |-------------------------------------------|
G |--------4--------------6b7-b7--b7r6-------|
D |--4--6-----6--------------------------6----|
A |-------------------------------------------|
E |-------------------------------------------|
  
    B        Abm         A                Abm
e |-------------------------------------------|
B |-------------------------------------------|
G |--------4----------------------------4-----|
D |--4--6-----6--------------------4h6-----6--|
A |-----------------------2h4--/6-------------|
E |-------------------------------------------|

[Куплет 1]
B  Abm             B       Abm
I don't ever wanna pick a slice
B    Abm              A     Abm
One is pretty but the other lies
 B                 Abm
Chewing on a fat smoke
    B                 Abm
No filter but you're puffing
 B                 Abm
Suckin' on a slim vogue
      A          Abm
Dark fingernail polish

[Куплет 2]
B    Abm              B     Abm
I'm the treasure baby I'm the prize
 B      Abm                  A     Abm
Cut me rails of that fresh cherry pie
 B               Abm
Shitty old pistola
        B                 Abm
Shot a bullet thru my wallet
       B            Abm
Gonna go to Pensacola
       A                      Abm
Gonna fuck my way through college

[Припев]
 B                     Bb
You've gone with the thick rims
 A                 Ab
Big look with the lip ring and things
 B                Bb
Wake me when the bell rings
 A                        Ab
I'm gonna sleep 'cos you live in my day dreams
 B                     Bb
You've gone with the thick rims
 A                 Ab
Big look with the lip ring and things
 B                Bb
Wake me when the bell rings
 A                        Ab
I'm gonna sleep 'cos you live in my day dreams

   Crazy Piano
e |-11-11-11-11-11-11-11-11-11-11-11-11-11-11-11-11--| x4
B |--------------------------------------------------|
G |--------------------------------------------------|
D |--------------------------------------------------|
A |--------------------------------------------------|
E |--------------------------------------------------|

  (Продолжается на протяжении всей оставшейся песни)
e |------11------------10------------9---------------------------|
B |--12------12--11--------11----10-----10--9-----9--9-10-10-11--|
G |--------------------------------------------------------------|
D |--------------------------------------------------------------|
A |--------------------------------------------------------------|
E |--------------------------------------------------------------|

[Куплет 3]
 B    Bb                A       Ab
Sitting pretty in the prime of life
B    Bb                A       Ab
I'm so tasty and the price is right
  B                   Bb
Stewing in the black dope
A                     Ab
I'm filthy and I love it
  B              Bb
Studebacker all gold
        A            Ab
Got a shotgun in my pocket

[Припев]
 B                     Bb
You've gone with the thick rims
 A                 Ab
Big look with the lip ring and things
 B                Bb
Wake me when the bell rings
 A                        Ab
I'm gonna sleep 'cos you live in my day dreams

[Соло]
B Bb A Ab


  Аутро 
e |------11------------10------------9---------------------------|
B |--12------12--11--------11----10-----10--9-----9--9-10-10-11--|
G |--------------------------------------------------------------|
D |--------------------------------------------------------------|
A |--------------------------------------------------------------|
E |--------------------------------------------------------------|
Наверх