Аккорды Gotye - Somebody That I Used To Know

Добавлено: @romashka
Дата добавления: 07 Марта 2021г.
Рейтинг:
0.0
Просмотров: 60
Транспонировать - +
Tuning: Standard (Capo on 5th Fret)

Verse Rhythm:
Am    G
e ----0----x-x----3----x-x----|
B ----1----x-x----3----x-x----|
G ----2----x-x----0----x-x----|
D ----2----x-x----0----x-x----|
A ----0----x-x----2----x-x----|
E ---------x-x----3----x-x----|

Melody Fill (0:04)
e ------------0-1-3-0-------|
B ------3-3------------3-3--|
G --2-2---------------------|
D --------------------------|
A --------------------------|
E --------------------------|

e --------------------|
B --1-1--0-0----------|
G ------------2-2--0--|
D --------------------|
A --------------------|
E --------------------|

e ------------0-1-3-0-------|
B ------3-3------------3-3--|
G --2-2---------------------|
D --------------------------|
A --------------------------|
E --------------------------|

e -----------------3--|
B -------0---------1--|
G --2-2-----2-2----2--|
D -----------------2--|
A -----------------0--|
E --------------------|

Chorus Rhythm:
Am    G     F     G
e ----0----x-x----3----x-x----x----x-x----3----x-x----|
B ----1----x-x----3----x-x----1----x-x----3----x-x----|
G ----2----x-x----0----x-x----2----x-x----0----x-x----|
D ----2----x-x----0----x-x----3----x-x----0----x-x----|
A ----0----x-x----2----x-x----3----x-x----2----x-x----|
E ---------x-x----3----x-x----x----x-x----3----x-x----|
Наверх