Аккорды Гражданская Оборона - Поганая молодёжь

Добавлено: @romashka
Дата добавления: 07 Июня 2020г.
Рейтинг:
0.0
Просмотров: 29
Транспонировать - +
E|-------------------------------------------------|
B|-----3-1-0-------3-1-0--------3-1-0--------0-----|
G|-0---------2--0---------2--0---------2--0-2---2-0|
C                       Am
День и ночь по улицам шатаются толпы,
   F       G
Поганая молодёжь,
 C                          Am
Они блюют портвейном на почтенных граждан,
   F       G
Поганая молодёжь,
 C                   Am
Они ломают окна и втыкают члены,
   F       G
Поганая молодёжь,
 C            Am
Они поют всё то, что слушать невозможно,
   F       G
Поганая молодёжь.

Em         F            A     G
Не надо нас пугать - нам нечего терять,
Em            F         G
И нам на всё насрать и растереть.

E|-------------------------------------------------|
B|-----3-1-0-------3-1-0--------3-1-0--------0-----|
G|-0---------2--0---------2--0---------2--0-2---2-0|

C                       Am
Пусть вводится военное положение,
   F       G
Поганая молодёжь,
 C                          Am
Да здравствует, Гражданская оборона,
   F       G
Поганая молодёжь,
 C                          Am
Но всё равно становится всё больше панков,
   F       G
Поганая молодёжь,
 C                          Am
Но всё равно становится всё больше,больше,
   F       G
Поганая молодёжь,

Em         F            A     G
Не надо нас пугать - нам нечего терять,
Em            F         G           G           G
И нам на всё насрать и растереть и растереть и растере-е-е-е-еть!

E|-------------------------------------------------|
B|-----3-1-0-------3-1-0--------3-1-0--------0-----|
G|-0---------2--0---------2--0---------2--0-2---2-0|

Шестерка. ↓↓↑ ↑↓↑.
Можно с глушением. ↓*↑ ↑*↑
Наверх