Аккорды Гражданская Оборона - Извне

Добавлено: @Jlblcblu
Дата добавления: 16 Марта 2013г.
Рейтинг:
0.0
Просмотров: 379
Транспонировать - +
Hm F#

Hm  Em           F#           Hm
Ничего не понимаем вообще
         G                            A 
Только движем с каждым разом
               D                         Em
С каждой дозой, с каждой фазой
       Hm  F#  
Извне.

Пела лодочка о тёплой волне
То погромче, то — поближе
Может кто-нибудь услышит
Извне.

Как под пятками дымилась судьба
По подземным по озёрам
По звериным по позорам
Гоньба.



E|------------------------------------------------------------|
B|-----3-3-2-------------3-0-------------------5-7-5--------|
G|-----------3---------4---------------2-4-6-7-------7-6-4--|
D|-2-4---------4-2-0-4-------4-0-0-2-4----------------------|
A|-----------------------------------------------------------|
E|-----------------------------------------------------------|

E|------------------------------------------------------------|
B|------------------------------------------------------------|
G|-----4-4-6-7-7-------------------9-11-12------------------|
D|---------------2-4-5-4-2-----------------12-11-12-14-16-12|
A|-2-5---------------------2-1-7-5----------------------------|
E|------------------------------------------------------------|

E|----------15-14-------------------------------------------|
B|-15-14-12-------12-15-15-12-14-15-15-12----------------|
G|----------------------------------------------------------|
D|----------------------------------------------------------|
A|----------------------------------------------------------|
E|----------------------------------------------------------|


Так хотелось, чтобы было всегда
Только руки всё сводила 
Ослепительная сила — 
Да!!...

E|----------------------------------------------------------|
B|-8-7-8-7-5-----8-7-8-7-8-7-5-----8-8-7-7---------------|
G|-----------7-6---------------7-6---------7-4--------------|
D|----------------------------------------------------------|
A|--------------------------------------------9-5---5-2-----|
E|-------------------------------------------slide-slide-------|
табы: Reverantt

И придёт Оно однажды во сне
Закричит и похоронит
Излечит и скажет — 
А НУ-КА ВСТАТЬ!
comments powered by Disqus
Наверх