Аккорды Grouplove - Colours

Добавлено: @romashka
Дата добавления: 19 Марта 2020г.
Рейтинг:
0.0
Просмотров: 25
Транспонировать - +
Tuning: Half Step Down Eb Ab Db Gb Bb Eb

Tab:
e:-------------------------------------------------------------------|
B:-------------------------------------------------------------------|
G:-------------------------------------------------------------------|
D:---------------------------------------------------------------0---|
A:----------------2-2-2-2-2-2-2-2-----------------2-2-2-2-2-2p0-2----|
E:3-3-3-3-3-3-3-3-----------------3-3-3-3-3-3-3-3--------------------|
Repeats throughout the entire song

During the Huh Ha part:
e:-------------------------------------------------------------------|
B:-------------------------------------------------------------------|
G:-------------------------------------------------------------------|
D:-------------------------------------------------------------------|
A:---------------------------------2-2-2-2-15-15-15-15-14-14-14-14--|
E:3-3-3-3-15-15-15-15-14-14-14-14-----------------------------------|
The 15s and 14s are played twice as fast as the 2s and 3s 
(Eight Notes)

Chords:
G Bm (Changes follow the note changes)
comments powered by Disqus
Наверх