Аккорды Grouplove - Colours

Добавлено: @romashka
Дата добавления: 19 Марта 2020г.
Рейтинг:
0.0
Просмотров: 78
Транспонировать - +
0:00 - 0:10
e:-------------------------------------------------------------------|
B:-------------------------------------------------------------------|
G:-------------------------------------------------------------------|
D:-------------------------------------------------------------------|
A:----------------------------------------------------------------4--|
E:2-2-2-2-2-2-2-2-6-6-6-6-6-6-6-6-2-2-2-2-2-2-2-2-6-6-6-6-6-6-4-6----|
 0:10 - 0:20
e:-------------------------------------------------------------------|
B:-------------------------------------------------------------------|
G:-------------------------------------------------------------------|
D:-------------------------------------------------------------------|
A:----------------------------------------------------------------4--|
E:2-2-2-2-2-2-2-2-6-6-6-6-6-6-6-6-2-2-2-2-2-2-2-2-6-6-6-6-6-6-4-6----|
0:20 - 0:25
e:-------------------------------------------------------------------|
B:-------------------------------------------------------------------|
G:-------------------------------------------------------------------|
D:----------------3-3-3-3-11-11-11-11-10-10-10-10--------------------|
A:4-4-4-4-4-4-4-4-1-1-1-1-9--9--9--9--8--8--8--8---------------------|
E:2-2-2-2-2-2-2-2---------9--9--9--9--8--8--8--8---------------------|
Strum the power chords here lightly.
0:25 - 0:30
e:-------------------------------------------------------------------|
B:-------------------------------------------------------------------|
G:-------------------------------------------------------------------|
D:--------11-11-11-11-10-10-10-10-3-3-3-3-11-11-11-11-10-10-10-10----|
A:4-4-4-4-9--9--9--9--8--8--8--8--1-1-1-1-9--9--9--9--8--8--8--8-----|
E:2-2-2-2-9--9--9--9--8--8--8--8----------9--9--9--9--8--8--8--8-----|
0:30 - 0:45
e:-------------------------------------------------------------------|
B:-------------------------------------------------------------------|
G:-------------------------------------------------------------------|
D:-------------------------------------------------------------------|
A:-------------------------------------------------------------------|
E:2-9-13-2-9-14-13-14-16-18------------------------------------------|
Tremolo pick these frets except for the 18th. 
Strum that once and let it ring out 45 seconds into the song.
0:45 - 0:56
e:-------------------------------------------------------------------|
B:-------------------------------------------------------------------|
G:-------------------------------------------------------------------|
D:-------------------------------------------------------------------|
A:-------------------------------4---------------------------------4-|
E:2-2-2-2-2-2-2-2-6-6-6-6-6-6-4-6-2-2-2-2-2-2-2-2-6-6-6-6-6-6-4-6----|x3
0:56 - 1:02
e:-------------------------------------------------------------------|
B:-------------------------------------------------------------------|
G:-------------------------------------------------------------------|
D:-------------------------------------------------------------------|
A:-------------------------------------------------------------------|
E:2-2-2-2-2-2-2-2-6-6-6-6/14/1814-----------------------------------|
Tremolo pick the first 14 and 18 and hit the 14 once 
and immediately switch to the power chord below 
which starts off the chorus.
1:02 - 1:22 (Chorus)
e:-------------------------------------------------------------------|
B:-------------------------------------------------------------------|
G:-------------------------------------------------------------------|
D:--------------------3-3-3-3-3-3-3-3-x-x----------------------------|
A:4-4-4-4-4-4-4-4-x-x-1-1-1-1-1-1-1-1-x-x----------------------------|
E:2-2-2-2-2-2-2-2-x-x------------------------------------------------|x4
1:22 - 1:35
e:-------------------------------------------------------------------|
B:-------------------------------------------------------------------|
G:-------------------------------------------------------------------|
D:-------------------------------------------------------------------|
A:4---------1-------------------1------------------------------------|
E:2-------------------2-------------------2-2-2-2-2-2-2-2------------|
1:35 - 1:43
e:-------------------------------------------------------------------|
B:-------------------------------------------------------------------|
G:-------------------------------------------------------------------|
D:3-3-3-3-3-3-3-3-----------------3-3-3-3----------------------------|
A:1-1-1-1-1-1-1-1-4-4-4-4-4-4-4-4-1-1-1-1----------------------------|
E:----------------2-2-2-2-2-2-2-2---------14/1814-------------------|
1:43 - 1:53
e:-------------------------------------------------------------------|
B:-------------------------------------------------------------------|
G:-------------------------------------------------------------------|
D:--------------------3-3-3-3-3-3-3-3-x-x----------------------------|
A:4-4-4-4-4-4-4-4-x-x-1-1-1-1-1-1-1-1-x-x----------------------------|
E:2-2-2-2-2-2-2-2-x-x------------------------------------------------|x2
1:53 - 2:13
e:-------------------------------------------------------------------|
B:-------------------------------------------------------------------|
G:11-13-15-16-15-10-11-13-15-16-15-10-11-----------------------------|
D:-------------------------------------------------------------------|
A:-------------------------------------------------------------------|
E:-------------------------------------------------------------------|
Tremolo pick, but hit last one (11) once.
You can figure out the rest of the song by using your ears. 
Just use some parts that I've given you. 
Although here's one part that hasn't been tabbed 
and is hard to hear, but it sounds accurate.
3:37 - 3:58
e:-------------------------------------------------------------------|
B:------9------------------------------------------------------------|
G:11-11--11-10-10----------------------------------------------------|
D:----------------11-11----------------------------------------------|
A:-------------------------------------------------------------------|
E:-------------------------------------------------------------------|x8
3:58 - 4:18
e:-------------------------------------------------------------------|
B:-------------------------------------------------------------------|
G:-------------------------------------------------------------------|
D:4------------------------------------------------------------------|
A:2------------4/16--------------------------------------------------|
E:-------------2/14--------------------------------------------------|
Strum the last two power chords fast. 
You'll see what I mean. Thanks for reading this. 
I hope it helps.
Наверх