Аккорды Grouplove - Cruel And Beautiful World

Добавлено: @romashka
Дата добавления: 19 Марта 2020г.
Рейтинг:
0.0
Просмотров: 24
Транспонировать - +
(Capo 1 fret)

Guitar1
E:-----------------------------------------------------------|
B:-3------0------2------3------3------0------2------3p2------|
G:-2-2----0-0----2-2----2-2----2-2----0-0----2-2----2--2-----|x2
D:----0------0------2------0------0------0------2-------2----|
A:-----------------------------------------------------------|
E:-----------------------------------------------------------|

Guitar2
E:---------------------------5-5---5--7---7------------------|
B:-3---3--5---5--7---8-7-----7-7------8------15-----16p15----|
G:-2-2----4-4----6-6-------------7------9----15--------------|
D:-----------------------------------------------------------|
A:-----------------------------------------------------------|
E:-----------------------------------------------------------|

D  G     A      D       D     G       A   A
Go ahead and close the door. I'll stand outside in the rain.
D     G      A     D      D         G     A   A
A little bird just told me so. It's time to start over again.
D        G    A      D   D  G          A   A
So, I'll man up and take this boat far away from these shores 
      D   G      A   D     D     G     A   A
and I'll reach behind an enemy land and find my curable cure.

         D      G      A      D G    A 
'Cause it's a cruel and beautiful world and I got my girl 
       D           G     A
and if it seems like we're falling behind,
       D       G       A         D
we're just slippin' on top of the mouths of our mind.

(D) G A D D G A A
 D G A D D G A A

 D     G         A       D       D      G       A     
I buried a treasure far off near the desert. I'm trying 
to find my way there.
   D     G       A      D         D       G    A         
It's been too long since I've been myself and my eyes 
can't see anymore 
         D    G      A     D     
but there's a song inside this heart of mine
     D     G       A    
and I'd like to sing it to you 
            D       G     A      D        D     G     A    
'cause there's an earthquake shakin' inside my country, 
now what Am I gonna do?

         D      G      A      D G    A
'Cause it's a cruel and beautiful world and I got my girl 
       D           G     A 
and if it seems like we're falling behind,
       D       G       A        
we're just slippin' on top of the mouths of our

G  D  A D     G   D   A   A
mii-iii-iiind    heee heee yeah 
G  D  A  D   G  D  A  A
Haa aaa eee eee  ouu ouu ouuu

         D      G      A       A
'Cause it's a cruel and beautiful world 
                       (cruel and beautiful world)
   D G    A   A     
and I got my girl 
         (he's got his girl)
       D           G     A             A
and if it seems like we're falling behind,
                        (seems like they're falling behind)
       D       G       A         D
we're just slippin' on top of the mouths of our mind.

Outro: (D) G  A  D  D  G  A  A 
        D  G  A  D  D  G  A  A   
comments powered by Disqus
Наверх