Аккорды Grouplove - Itchin On A Photograph

Добавлено: @romashka
Дата добавления: 19 Марта 2020г.
Рейтинг:
0.0
Просмотров: 84
Транспонировать - +
Intro/Verses:
e|------------------------------------------------------------------------|
B|------------------------------------------------------------------------|
G|------------------------------------------------------------------------|
D|------------------------------------------------------------/9-9-8-8----|
A|--9-9-9-9-9-9-9-9-8-8-8-6-6-6-6-6-9-9-9-9-9-9-9-9-8-8-8-6---------------|
E|------------------------------------------------------------------------|

Chorus:
 F#                  Ebmin               B                    C#
e|------------------------------------------------------------------------|
B|-11--------------7----------------7----------------9--------------------|
G|-11------------- 8----------------8----------------10-------------------|
D|-11------------- 8----------------9----------------11-------------------|
A|-9---------------6--------------- 9----------------11-------------------|
E|----------------------------------7----------------9--------------------|

Post-Chorus: (Guitar 1 plays Intro/Verse)
e|-----------------------------------------------------------------------|
B|-----------------------------------------------------------------------|
G|-----------------------------------------8/11--------------------------|
D|--11--8--9--8-----8--------11--8--9--8--------11-----------------------|
A|---------------11----8-------------------------------------------------|
E|-----------------------------------------------------------------------|

Bridge: (Chorus x3 then this. Listen for rhythm)
    B        Bb      C#         F#
e|-------------------------------------------|
B|-7-------6--------9--------2---------------|
G|-8-------7-------10--------3---------------|
D|-9-------8-------11--------4---------------|
A|-9-------8-------11--------4---------------|
E|-7-------6--------9-------- 2--------------|

Guitar Solo: (Guitar 1 plays Into/Verse)
e|-----------------------------------------------------------|
B|-----------------------------------------------------------|
G|-----------------------------------------8/11--------------|
D|--11--8--9--8-----8--------11--8--9--8--------11------ ----|
A|---------------11----8------------------------------ ------|
E|-----------------------------------------------------------|

e|-----------------------------------------------------------|
B|-----------------------------------------------------------|
G|-----------------------------------------8/11--------------|
D|--11--8--9--8-----8--------11--8--9--8---------------- ----|
A|---------------11----8------------------------------ ------|
E|-----------------------------------------------------------|

e|-----------------------------------------------------------------------|
B|-------11-11-14-14-11-11-12-12-11-11-------11-11-----------------------|
G|-11-11--------------------------------13-13----------------------------|
D|-----------------------------------------------------------------------|
A|-----------------------------------------------------------------------|
E|-----------------------------------------------------------------------|

e|---------------------------------------11-11-14-14---------------------|
B|-------11-11-14-14-11-11-12-12-11-11-----------------------------------|
G|-11-11-----------------------------------------------------------------|
D|-----------------------------------------------------------------------|
A|-----------------------------------------------------------------------|
E|-----------------------------------------------------------------------|

e|-----------------------------------------------------------------------|
B|-------11-11-14-14-11-11-12-12-11-11-------11-11-----------------------|
G|-11-11--------------------------------13-13----------------------------|
D|-----------------------------------------------------------------------|
A|-----------------------------------------------------------------------|
E|-----------------------------------------------------------------------|

e|---------------------------------------11-11-14-14~~14~~14~14~14~14------|
B|-------11-11-14-14-11-11-12-12-11-11-------------------------------------|
G|-11-11-------------------------------------------------------------------|
D|-------------------------------------------------------------------------|
A|-------------------------------------------------------------------------|
E|-------------------------------------------------------------------------|

(Tremelo Picking)
e|-14-14-14-14-13-13-11-11-19-18--------|
B|--------------------------------------|
G|--------------------------------------|
D|--------------------------------------|
A|--------------------------------------|
E|--------------------------------------|

e|-14-14-14-14-13-13-11-11-14-9---------|
B|--------------------------------------|
G|--------------------------------------|
D|--------------------------------------|
A|--------------------------------------|
E|--------------------------------------|

e|-14-14-14-14-13-13-11-11-19-18--------|
B|--------------------------------------|
G|--------------------------------------|
D|--------------------------------------|
A|--------------------------------------|
E|--------------------------------------|

e|-14-14-14-14-13-13-11-11-14-9-14~~-----|
B|---------------------------------------|
G|----------------------------------- ---|
D|----------------------------------- ---|
A|----------------------------------- ---|
E|---------------------------------------|

Order:
Intro
Verse
Chorus
Post-Chorus
Chorus
Bridge
Clapping Bridge (Play Intro/Verse)
Guitar Solo
End on F# (x.9.11.11.11.x)
Наверх