Аккорды Grouplove - Tongue Tied

Добавлено: @romashka
Дата добавления: 19 Марта 2020г.
Рейтинг:
0.0
Просмотров: 20
Транспонировать - +
Tuning: Capo 1 Tabbed IN RELATION TO CAPO!

Melody played on bells or piano or whatever and is the melody to 
"Take you to your best friends house"

e|--------------------------------------------------------------------------|
B|---------------7-------------------------------7--------------------------|
G|-------7---9-------9---7---------------7---9-------9---7-------7-------6--|
D|---9-----------------------9-------9-----------------------9--------------|
A|--------------------------------------------------------------------------|
E|--------------------------------------------------------------------------|


Here is the part played on synth or bass between lines 
in the verses. Sounds cool on guitar

e|--------------------------------------------------------------------------|
B|--------------------------------------------------------------------------|
G|-----------6---6---------------6---6--------------------------------------|
D|---0---0-------------7---0-------------7-------------------------------|
A|--------------------------------------------------------------------------|
E|--------------------------------------------------------------------------|

= slide down
comments powered by Disqus
Наверх