Аккорды «Heideroosjes»

Heideroosjes
Heideroosjes - голландская панк-рок-группа Хорст-Ан-де-Маас. Группа известна своими энергичными шоу (которых они сыграли более 1500) и песнями с текстами в основном на голландском и английском языках, и несколькими песнями на немецком и лимбургском (диалект распространен в нидерландской провинции Лимбург). Группа образованна в 1989 году и состоит из Marco Roelofs (вокал/гитара), Frank Kleuskens (гитара), Fred Houben (бас) и Igor Hobus (перкуссия). Heideroosjes - голландская панк-рок-группа Хорст-Ан-де-Маас. Группа известна своими энергичными шоу (которых они сыграли более 1500) и песнями с текстами в основном на голландском и английском языках, и несколькими песнями на немецком и лимбургском (диалект распространен в нидерландской провинции Лимбург). Группа образованна в 1989 году и состоит из Marco Roelofs (вокал/гитара), Frank Kleuskens (гитара), Fred Houben (бас) и Igor Hobus (перкуссия). Скрыть...
Популярные аккорды Heideroosjes:
алфавиту | просмотрам | случайно
  • INTRO
      C
    
    FILL IN
     e-3-3-3-3-3-3-3-3-|-----------------|-3-3-3-3-3-3-3-3-|-------------------|
     B-----------------|-5-5-----3-------|-----------------|-5-5---------------|
     G-----------------|-----------------|-----------------|---------4---------|…
  • G|--------------------------------------------------------------------------|
    D|--------------------------------------------------------------------------|
    A|-----------------6666----------------7777---------------------------------|
    E|--6-4--6-4--6-4--------6-4--6-4--6-4--------------------------------------|
    
    
    G|--------------------------------------------------------------------------|
    D|----------------1111-----------------2222---------------------------------|
    A|-2----2----2----------2----2----2-----------------------------------------|
    E|---4----4----4----------4----4----4---------------------------------------|…
  • Het hele nummer bestaat eigenlijk gewoon uit G E C en D
    
           G     E     C     D
    e|-----3-----0-----0-----2-----
    B|-----0-----0-----1-----3-----
    G|-----0-----1-----0-----2-----
    D|-----0-----2-----2-----0-----
    A|-----2-----2-----3-----0-----
    E|-----3-----0-----0-----0-----
    
    
    Intro:…
  • Riff:
    e---------------
    B---------------
    G--------5--7---
    D--5--7---------
    A---------------
    E---------------
    
    
    E    G    C    D   (play 2 times as intro)     
     
    
    Mevrouw Helmink uw maandverband zit fout
            E…
  • A#   F  F5
    ------8---------------------|
    -----10---------------------|
    -----10---10----------------|
    -8---10---10----------------|^?
    -8----8----8----------------|
    -6--------------------------|
     ?
    
    
    intro:
    
    F A#
    
    repeat this…
  • Intro:	(light distortion)
    
    |---------------------------------------------------
    |-------9------10------9-------7-----------------
    |-----6------6-------9--------4-------------------  x2
    |---------------------------------------------------
    |---------------------------------------------------
    |---------------------------------------------------
    
    
    Verse:
    
    |--------------------------------------------------------------
    |---9xx9xx9---10xx10xx10---9xx9xx9---7xx7xx7----
    |---6xx6xx6----6xx-6xx-6----9xx9xx9----4xx4xx4---…
  • RIFF1 (*=8x, #=4x)       RIFF2                 RIFF3
    e-------(play 3x)-------|--------(play 2x)----|---------(play 4x)--------|---
    B---*--------#----------|-------#-------------|------#--#--#-----#-------|--*
    G--9------8-6----#---#--|---#--7----#---#-----|---#-7--9--9---#-7---#--#-|-9-
    D--9------8-6---6---7---|--4---7---7---7---6--|--9--7--9--9--9--7--7--7--|-9-
    A--7------6-4---6---7---|--4---5---7---7---6--|--9--5--7--7--9--5--7--7--|-7-
    E---------------4---5---|--2-------5---5---4--|--7-----------7-----5--5--|---
    2x…
  • De eerste keer speel je dit, 
    
    E--------------------------------------------------------------|
    B--------------------------------------------------------------|
    G---------5----7----5------------------------------------------|
    D---5----5-5--7-7--5-5-----------------------------------------|
    A--5-5--3----5----3--------------------------------------------|
    E-3------------------------------------------------------------|
    
    
    en…
  • Intro:
    |-------------------------------|
    |-------------------------------| 2x
    |-------------------------------|
    |---7----3--5-------7----3--2---|
    |0---------------0--------------|
    |-------------------------------|
    
    |----------------------------------------------------|
    |----------------------------------------------------|…
  • G|---------------------|---------------------|
    D|---------------------|---------------------|
    A|------3333-000-0-----|------3-333----------|
    E|-0-00------------333-|-0-00-------33333333-|
  • Intro/Verse Guitar1:
    
    e|-------------------------------------------------------------|
    B|-------------------------------------------------------------|
    G|-11-11-1111-11-1111-11-1111-11-------------------------------|
    D|-9--9--9-9--9--9-9--9--9-9--9--11-11-1111-11-1111-11-1111-11-|
    A|-------------------------------9--9--9-9--9--9-9--9--9-9--9--|
    E|-------------------------------------------------------------|
    PM…
  • Intro:
    Es C# G#
    Es C# G#
    
    
    Verse 1:
    Es                                C#           G#
    I walk in the streets and there's no one there
    Es                   C#
    I hear a voice but no one's there Es                         C#…
Наверх