Аккорды «Helmet»

Helmet
Группа Helmet, чья музыка характеризуется синкопированными, стаккатными риффами, использованием обильного дисторшна и фидбэка и низким строем гитар (струна E опущена на тон до ноты D), считается одной из основательниц жанра "пост-хардкор". Команду организовал в 1989 году приехавший из Орегона в Нью-Йорк Пэйдж Гамильтон. В оригинальный состав также вошли земляк Пэйджа Генри Богдан (бас), австралиец Питер Менгеде (гитара) и уроженец Флориды Джон Станье (ударные). С помощью Тома Хазельмейера квартет… Читать полностью... Группа Helmet, чья музыка характеризуется синкопированными, стаккатными риффами, использованием обильного дисторшна и фидбэка и низким строем гитар (струна E опущена на тон до ноты D), считается одной из основательниц жанра "пост-хардкор". Команду организовал в 1989 году приехавший из Орегона в Нью-Йорк Пэйдж Гамильтон. В оригинальный состав также вошли земляк Пэйджа Генри Богдан (бас), австралиец Питер Менгеде (гитара) и уроженец Флориды Джон Станье (ударные). С помощью Тома Хазельмейера квартет подписался к "Amphetamine Reptile Records", где в том же 1989-м дебютировал с семидюймовкой "Born Annoying". На следующий год вышел лонгплей "Strap It On", засвидетельствовавший грубую силу "Helmet". Альбом произвел впечатление на записывающие фирмы, и группу засыпали предложениями. Музыканты сделали свой выбор в пользу "Interscope Records", где в 1992-м был издан диск "Meantime". Эта работа стала наиболее удачной в коммерческом плане, а ее общий тираж перевалил за миллионную отметку. Немалую роль в раскрутке альбома сыграли эмтивишные клипы "Give It", "In the Meantime" и "Unsung", а также глобальное турне, проходившее в странах Северной Америки, Европы и Азии. Однако в ходе тех гастролей в коллективе начались трения, и в результате в начале 1993-го ушел в отставку Питер. Заменив гитариста на Роба Эчеверрию, Helmet выпустили альбом "Betty". Эта пластинка принесла группе наивысшую позицию в чартах "Billboard" (45-е место), однако уровень ее продаж был гораздо ниже, чем у "Meantime". После очередного тура Эчеверрия перебрался в Biohazard, и формат Helmet сократился до трио. На следующем альбоме все гитарные партии Гамильтон записывал в одиночку, однако его вокальная работа на "Aftertaste" оказалась не на высоте. Относительный успех получила лишь песня "Exactly What You Wanted", а сам лонгплей не мог похвастаться ни высокими чартовыми позициями, ни раскупаемостью. Пополнив состав гитаристом Крисом Трэйнором, группа откатала промо-тур и... распалась. Гамильтон переехал в Лос-Анджелес, и занялся кучей проектов от работы на Дэвида Боуи до участия в создании саундтреков. Со временем он начал подумывать о реюнионе своей бывшей команды, однако ни Богдан, ни Станье не проявили интереса к этой идее. Тогда Пэйдж, бывший автором подавляющего большинства песен (гитарист сочинял музыку с помощью драм-машины и магнитофона), завербовал Джона Темпесту (экс-Testament, White Zombie), прихватил Криса Тэйнора и вместе с ними под маркой Helmet записал альбом "Size Matters". Чуть позже к их компании присоединился Фрэнк Белло, сыгравший нужные басовые партии и поехавший в сопровождающее турне. Впрочем, Фрэнк вскоре ушел в возрожденный Anthrax, а его место занял Джереми Чатлэйн. Немного погодя Темпеста тоже сбежал (в The Cult), и ударными завладел Майк Джост. Попутно группа рассталась с "Interscope Records" и заключила новую сделку с "Warcon Enterprises". В 2006-м Helmet выпустили альбом "Monochrome" и в качестве хедлайнеров отправились в "Warped Tour". По завершении тура в команде вновь началась утечка кадров: сначала ушел Трэйнор, затем Джост, а затем и Чатлэйн. В результате часть намеченных концертов пришлось отменить, однако к концу 2006 года Гамильтон полностью укомплектовал состав с помощью Джимми Томпсона (гитара), Кайла Стивсона (ударные) и Джона Фуллера. (бас). Скрыть...
Популярные аккорды Helmet:
алфавиту | просмотрам | случайно
  • Dropped D Tuning
    
    
    INTRO:
    
    1:|-----|
    2:|-----|
    3:|-----|  Bang on this for a few times
    4:|--3--|  Palm-muted at first, then getting
    5:|--3--|  louder
    6:|--3--|
    
    
    Riff A:
    
    1:|---------------------------------------------|
    2:|---------------------------------------------|
    3:|---------------------------------------------|
    4:|--0-0-9-10---0-0-9-10---0-0-9-10---0-0-9-10--|
    5:|--0-0-9-10---0-0-9-10---0-0-9-10---0-0-9-10--|
    6:|--0-0-9-10---0-0-9-10---0-0-9-10---0-0-9-10--|
    Play…
  • Intro:
    |-----------------------------------------------|
    |-----------------------------------------------|
    |-----------------------------------------------|
    |--5555555555555555555555555555555555555555555--|
    |--5555555555555555555555555555555555555555555--|
    |--5555555555555555555555555555555555555555555--|just…
  • Drop D Tuning
    
    ------------------------------------------------------------------------------|
    ------------------------------------------------------------------------------|
    ------------------------------------------------------------------------------|
    ------------------------------------------------------------------------------|
    -3--3--0--1b--0--2--2--2--2---------------------------------------------------|
    -3--3--0--1b--0--2--2--2--2---------------------------------------------------|
    
    
    ------------------------------------------------------------------------------|
    ------------------------------------------------------------------------------|
    ------------------------------------------------------------------------------|
    --------------3--1--0--2--2--2--3--3--4---------------------------------------|
    --------------3--1--0--2--2--2--3--3--4---------------------------------------|
    --------------3--1--0--2--2--2--3--3--4---------------------------------------|…
  • Drop C# Tuning - C#, G#, C#, F#, A#, D# 
     
    
    Intro: 
    
    |---------------------------------| 
    |-----------------5-5---5-5---5-5-| 
    |-----------------4-4---4-4---4-4-| 
    |-0-------2-------2-2---2-2---2-2-| 
    |-0-------2-----------------------|…
  • Dropped D tuning
    
    
    INTRO:
    
    E:|------------------------------------------------------|
    B:|------------------------------------------------------|
    G:|------------------------------------------------------|
    D:|---0-----5--4--3------2-2-2-2-2-2-2-2-2-2-2-2-2-2-2-2-|
    A:|---0-----5--4--3------2-2-2-2-2-2-2-2-2-2-2-2-2-2-2-2-|
    D:|---0-----5--4--3------2-2-2-2-2-2-2-2-2-2-2-2-2-2-2-2-|
    
    
    MAIN…
  • Dropped D tuning - D, A, D, G, B, E
    
    
    Intro:
    
    |-----------------0~~-|---------------0~~-|---------------4-4-4-4-4-4-4-|
    |-----------------0~~-|---------------0~~-|---------------4-4-4-4-4-4-4-|
    |-----------------3~~-|---------------3~~-|---------------4-4-4-4-4-4-4-|
    |-9-0-0-8-9-0-0~~-----|-9-0--0--0-0~~-----|-9-0-0-8-9-0-2-2-2-2-2-2-2-2-|
    |-9-0-0-8-9-0-0~~-----|-9-0--0--0-0~~-----|-9-0-0-8-9-0-2-2-2-2-2-2-2-2-|
    |-9-0-0-8-9-0-0~~-----|-9-0--0--0-0~~-----|-9-0-0-8-9-0-2-2-2-2-2-2-2-2-|…
  • Drop D Tuning: D, A, D, G, B, E
    
    
    Intro:
    
    |-17-17-17-17-17-17-17-17-17-17-17-17-17-17-17-17-6-6-6-6-6-6-6-6-6-6-6-6-|
    |-------------------------------------------------------------------------|
    |-14-14-14-14-14-14-14-14-14-14-14-14-14-14-14-14-3-3-3-3-3-3-3-3-3-3-3-3-|
    |-------------------------------------------------------------------------|
    |-------------------------------------------------------------------------|
    |-------------------------------------------------------------------------|
    |…
  • INTRO:
    E--------------------------------------0-----------------------|
    B--------------------------------------0-----------------------|
    G--------------------------------------0-----------------------|
    D--3--0--12--0--3-3---3--0--12--0--3-3-0---3--0--12--0--3--3-3-|
    A--3--0--12--0--3-3---3--0--12--0--3-3-----3--0--12--0--3--3-3-|
    D--3--0--12--0--3-3---3--0--12--0--3-3-----3--0--12--0--3--3-3-|
    
    E------------------------------------------|
    B------------------------------------------|
    G-----------------8-8-8-8-8----------------|
    D-3-3-3-3-3-3-8-8-8-8-8-8-8-6--6-6-6-6-5-0-|
    A-3-3-3-3-3-3-8-8-----------6--6-6-6-6-5-0-|
    D-3-3-3-3-3-3-8-8-----------6--6-6-6-6-5-0-|
    
    
    VERSE:
    E--------------------------------------------------------------|
    B--------------------------------------------------------------|
    G----------------------------------------------------------(3)-|
    D-3---0------12---0-------3--3---------------3-0-12--0-3-3-(3)-|
    A-3---0------12---0-------3--3---------------3-0-12--0-3-3-----|
    D-3---0------12---0-------3--3---------------3-0-12--0-3-3-----|
    
    
    1.…
  • Drop C# Tuning - C#, G#, C#, F#, A#, D#
    
    
    Intro:
    
    |-------|-------------------------------------------------------------|
    |-DRUMS-|-----5-5-5-5-------0~~-------5~~---------0~~-------------5~~-|
    |-------|-----5-5-5-5-------0~~-------5~~---------0~~-------------5~~-|
    |-------|-3~~-5-5-5-5---0~~-0~~---3~~-5~~---4-3-0-0~~---2h3-3-3-3-5~~-|
    |-ONLY--|-3~~-----------0~~-------3~~-------4-3-0-------2h3-3-3-3-----|
    |-------|-3~~-----------0~~-------3~~-------4-3-0-------2h3-3-3-3-----|
    
    |----------------------------|------------------|---------|------------|
    |--------------0~~-----------|------------------|---------|------------|
    |--------------0~~-----------|------------------|---------|------------|
    |-5-4-3-0--0~~-0~~---1~~---0-||||
    |-5-4-3-0--0~~-------1~~---0-||||
    |-5-4-3-0--0~~-------1~~---0-||||…
  • Drop D Tuning - D, A, D, G, B, E
    
    
    Intro:
    
    |--------------------|
    |--------------------|
    |--------------------|
    |-------------0-2--3-|
    |-----3p2-2h3-0-2--3-|
    |-0-----------0-2--3-|
      Play x 4
    
    
    Verse:
    
    |------|-------------------|-------------|
    |-BASS-|-------------------|-------------|
    |------|-------------------|-------------|
    |------|-------------------|-0-3h4-0-3h4-|
    |-ONLY-|-3h4-3h4-3h4-3h4---|-0-3h4-0-3h4-|
    |------|-----------------0-|-0-3h4-0-3h4-|…
  • Drop D Tuning - D, A, D, G, B, E
    
    
    Intro:
    
    |------|----------------|
    |-BASS-|----------------|
    |------|----------------|
    |------|----------------|
    |-ONLY-|----------------|
    |------|-3^p0-3^p0-3^p0-|
           | Play x 4
    
    
    Verse:…
  • Drop D Tuning - D, A, D, G, B, E
    
    
    Intro:
                               1|    2|        3|
    |-----------------|---------|-----|---------|
    |-----------------|---------|-----|---------|
    |-----------------|---------|-----|---------|
    |-0-0-0-0-0-0-0-0-|-0-7-0-7-|-0-7-|-0-7-0-6-|
    |-0-0-0-0-0-0-0-0-|-0-7-0-7-|-0-7-|-0-7-0-6-|
    |-0-0-0-0-0-0-0-0-|-0-7-0-7-|-0-7-|-0-7-0-6-|
    
    
    Verse:
    
    |-----------------------|------------------------------|
    |-----------------------|------------------------------|
    |-----------------------|------------------------------|
    |-0---0-0-6---0-0-0-7-0-|-0---0-0-6---0-0-0-0--0-0-0-0-|
    |-0---0-0-6---0-0-0-7-0-|-0---0-0-6---0-0-0-0--0-0-0-0-|
    |-0---0-0-6---0-0-0-7-0-|-0---0-0-6---0-0-0-0--0-0-0-0-|…
  • Standard Tuning - E, A, D, G, B, E
    
    
    Intro:
    
    |--------------------------------|--------------------------------|
    |--------------------------------|--------------------------------|
    |--------------------------------|--------------------------------|
    |-7-7-7--7-7-7--7-7-7--7-7-7-7-7-|-7-7-7--7-7-7--7-7-7--7-7-7-7-7-|
    |-7-7-7--7-7-7--7-7-7--7-7-7-7-7-|-7-7-7--7-7-7--7-7-7--7-7-7-7-7-|
    |-5-5-5--5-5-5--5-5-5--5-5-5-5-5-|-5-5-5--5-5-5--5-5-5--5-5-5-5-5-|
    |…
  • Drop D Tuning: D, A, D, G, B, E
    
    
    Intro:
                                                                   1|    2|
    |-----16-17^-----17-19^-|-----19-20^-----20-22^-----22^-22^-22^-|-----|
    |-----------------------|---------------------------------------|-----|
    |-----13-14^-----14-16^-|-----16-17^-----17-19^-----19^-19^-19^-|-----|
    |-0-0----//--0-0----//--|-0-0----//--0-0----//--0-0-------------|-0~~-|
    |-0-0--------0-0--------|-0-0--------0-0--------0-0-------------|-0~~-|
    |-0-0--------0-0--------|-0-0--------0-0--------0-0-------------|-0~~-|
    
    |----------------------------|----------------------------------------|
    |----------------------------|----------------------------------------|
    |----------------------------|----------------------------------------|
    |-0--3p0-3h5-6-0-0-3p0-3h5-6-|-0-0--0-0--0-0--0-0--0-0--0-0--0-0--0-0-|
    |-0--3p0-3h5-6-0-0-3p0-3h5-6-|-0-0--0-0--0-0--0-0--0-0--0-0--0-0--0-0-|
    |-0--3p0-3h5-6-0-0-3p0-3h5-6-|-0-0--0-0--0-0--0-0--0-0--0-0--0-0--0-0-|…
  • Drop D Tuning - D, A, D, G, B, E
    
    
    Intro:
    
    |------|---------------|
    |-BASS-|---------------|
    |------|---------------|
    |------|-~~---7-5~~-|
    |-ONLY-|-~~---------|
    |------|-~~---------|
           | ^ Feed - backed notes
    
    
    Verse:
    
    |-----------------------------|
    |-----------------------------|
    |-----------------------------|
    |-5-0-3-5-0-5-0-0-5-0-3-5-0-5-|
    |-5-0-3-5-0-5-0-0-5-0-3-5-0-5-|
    |-5-0-3-5-0-5-0-0-5-0-3-5-0-5-|…
  • Standard Tuning - E, A, D, G, B, E
    
    
    Intro:
    
    |-----------------|
    |-9-9-9-9-9-9-9-9-|
    |-9-9-9-9-9-9-9-9-|
    |-9-9-9-9-9-9-9-9-|
    |-7-7-7-7-7-7-7-7-|
    |-/-/-/-/-/-/-/-/-|
      Play x 12
    
    
    Verse:
    
    |---------------|
    |---------------|
    |-3--4--3--4--6-|
    |---------------|
    |---------------|
    |---------------|…
  • Tuning - D, A, D, G, B, E
    
    
    Intro:
    
    |---------------------|-------------------------|
    |---------------------|-------------------------|
    |---------------------|-------------------------|
    |-6--0-0-6--0-0--3--4-|-5-5-/3-2-0-/5-5-5-3-2-0-|
    |-6--0-0-6--0-0--3--4-|-5-5-/3-2-0-/5-5-5-3-2-0-|
    |-6--0-0-6--0-0--3--4-|-5-5-/3-2-0-/5-5-5-3-2-0-|…
  • Drop D Tuning - D, A, D, G, B, E
     
    
    Intro/Verse:
    
    |---------------------------------------|
    |---------------------------------------|
    |---------------------------------------|
    |-2-0-0-2--2-0-0-0-2---2-0-0-2--2-0-0-3-|
    |-2-0-0-2--2-0-0-0-2---2-0-0-2--2-0-0-3-|
    |-2-0-0-2--2-0-0-0-2---2-0-0-2--2-0-0-3-|…
  • Drop D Tuning - D, A, D, G, B, E
    
    
    Intro:
    
    |------|-----------------------------------------------------------------|
    |-BASS-|-----------------------------------------------------------------|
    |------|-----------------------------------------------------------------|
    |------|-121212121212121212121212121210101010101010101010101010109-9-9-9-|
    |-ONLY-|-121212121212121212121212121210101010101010101010101010109-9-9-9-|
    |------|-121212121212121212121212121210101010101010101010101010109-9-9-9-|
    
    |-------------------------------------------------|
    |-------------------------------------------------|
    |-------------------------------------------------|
    |-9-9-9-9-9-9-9-9-9-9-5-5-5-5-5-5-5-5-5-5-5-5-5-5-|
    |-9-9-9-9-9-9-9-9-9-9-5-5-5-5-5-5-5-5-5-5-5-5-5-5-|
    |-9-9-9-9-9-9-9-9-9-9-5-5-5-5-5-5-5-5-5-5-5-5-5-5-|
    
    
    Verse:…
  • Drop D Tuning - D, A, D, G, B, E
    
    
    Intro:
    
    |----------------------------|
    |----------------------------|
    |----------------------------|
    |-0-5-7--5h7-7--0-5-7--5h7-7-|
    |-0-5-7--5h7-7--0-5-7--5h7-7-|
    |-0-5-7--5h7-7--0-5-7--5h7-7-|…
  • Drop D Tuning - D, A, D, G, B, E 
    
    
    Intro: 
    
    |---------------| 
    |---------------| 
    |---------------| 
    |-1p0-3-0-0-1p0-| 
    |-1p0-3-0-0-1p0-| 
    |-1p0-3-0-0-1p0-| 
      Play x 10 
    
    
    Verse: 
    
    |---------------| 
    |---------------|…
  • Drop C# Tuning: C#, G#, C#, F#, A#, D# 
    
    
    Intro: 
    
    |---------------------------------| 
    |---------------------------------| 
    |---------------------------------| 
    |-0---0-0-/10-9---10-12-7-6-7-7-7-| 
    |-0---0-0-/10-9---10-12-7-6-7-7-7-|…
  • Drop D Tuning - D, A, D, G, B, E
    
    
    Intro:
                                            1,2,3,4,5,6,7| 
    |---------------------------|------------|-----------|---------------|
    |---------------------------|------------|-----------|---------------|
    |---------------------------|------------|-----------|---------------|
    |-7-8-7-0--7-8-7-0--7-0-7-0-|-3p0--x-3/5-|-x-2/3-2/3-|-2-2--2-2--2-2-|
    |-7-8-7-0--7-8-7-0--7-0-7-0-|-3p0--x-3/5-|-x-2/3-2/3-|-2-2--2-2--2-2-|
    |-7-8-7-0--7-8-7-0--7-0-7-0-|-3p0--x-3/5-|-x-2/3-2/3-|-2-2--2-2--2-2-|…
  • Drop D Tuning - D, A, D, G, B, E
    
    
    Intro/Verse:
    
    |---------------------------------|
    |-------------|
    |-------------|
    |-9-9----------9-x-9--------------|
    |-9-9----------9-x-9--------------|
    |-9-9----------9-x-9--------------|…
  • INTRO:
    E-|---------------------------------------------------------------------|
    B-|---------------------------------------------------------------------|
    G-|---------------------------------------------------------------------|
    D-|-0-----5-3-3---0-----0-2-3-5-5-6-6-0-----0-5-0-3-0-----0-2-3-5-5-6-6-|
    A-|-0-----5-3-3---0-----0-2-3-5-5-6-6-0-----0-5-0-3-0-----0-2-3-5-5-6-6-|
    D-|-0-----5-3-3---0-----0-2-3-5-5-6-6-0-----0-5-0-3-0-----0-2-3-5-5-6-6-|
    
    
    VERSE…
  • Drop D Tuning - D, A, D, G, B, E
    
    
    Intro:
    
    |---------------------|
    |---------------------|
    |---------------------|
    |-0-2p0-1p0-3-2-0-1-2-|
    |-0-2p0-1p0-3-2-0-1-2-|
    |-0-2p0-1p0-3-2-0-1-2-|
      Play x 16 
    
    Note - Guitar plays…
  • Drop D Tuning - D, A, D, G, B, E
    
    
    Verse:
    
    |------------------------------------------|
    |-7-----12--7-----12--7-----12-------------|
    |-6-----11--6-----11--6-----11-------------|
    |-4--0--9---4--0--9---4--0--9---4-6-7-9--7-|
    |-4--0--9---4--0--9---4--0--9---4-6-7-9--7-|
    |-4--0--9---4--0--9---4--0--9---4-6-7-9--7-|…
  • Standard Tuning - E, A, D, G, B, E
    
    
    Intro:
    
    |------|-0~~-|
    |-BASS-|-0~~-|
    |------|-1~~-|
    |------|-2~~-|
    |-ONLY-|-2~~-|
    |------|-0~~-|
    
    
    Verse:
    
    |-0-----------------|
    |-0-----------------|
    |-1---4-4-6-6-3-3-4-|
    |-2-----------------|
    |-2-----------------|
    |-0-----------------|…
  • Tuning - D, A, D, G, B, E
    
    
    Intro:
                             1,3|         2|        4|
    |------------------|--------|----------|---------|
    |------------------|--------|----------|---------|
    |------------------|--------|----------|---------|
    |-0--0--0--2--2--2-|-/6-5-3-|-/6-5-3-5-|-6-7-7-6-|
    |-0--0--0--2--2--2-|-/6-5-3-|-/6-5-3-5-|-6-7-7-6-|
    |-0--0--0--2--2--2-|-/6-5-3-|-/6-5-3-5-|-6-7-7-6-|
    
    
    Verse:…
  • Drop D Tuning - D, A, D, G, B, E
    
    
    Verse:
    
    |------------------|------------------------| 
    |--------7-9-9-7-7-|------------------------| 
    |--------7-9-9-7-7-|------------------------| 
    |-9---9------------|-9---9--9-9-9--9-9--9-9-|…
  • Drop D Tuning: D, A, D, G, B, E
     
    
    Intro:
    
    |-----------|----------------|
    |-0-0-0-0-0-|----------------|
    |-0-0-0-0-0-|----------------|
    |-5-5-5-5-5-|-5-5-2-0--0-0-2-|
    |-5-5-5-5-5-|-5-5-2-0--0-0-2-|
    |-5-5-5-5-5-|-5-5-2-0--0-0-2-|…
  • Drop D Tuning: D, A, D, G, B, E
    
    
    Intro:
    
    |---------------------|
    |---------------------|
    |---------------------|
    |-3-0-3-5-0-3-0-3-5-0-|
    |-3-0-3-5-0-3-0-3-5-0-|
    |-3-0-3-5-0-3-0-3-5-0-|
      Play x 8
     
    
    Verse:
    
    |---------------------------|---------------------|
    |---------------------------|---------------------|
    |---------------------------|---------------------|
    |-3--3-0-2-3-0-3--3-0-2-3-0-|-3-0-3-5-0-3-0-3-5-0-|
    |-3--3-0-2-3-0-3--3-0-2-3-0-|-3-0-3-5-0-3-0-3-5-0-|
    |-3--3-0-2-3-0-3--3-0-2-3-0-|-3-0-3-5-0-3-0-3-5-0-|…
  • Tuning - D, A, D, G, B, E
    
    
    Intro:
    
    |--------------|
    |-0--0--0-0--0-|
    |-0--0--0-0--0-|
    |-3--3--3-3--3-|
    |-3--3--3-3--3-|
    |-3--3--3-3--3-|
      Play x 4
    
    
    Verse 1:
    
    |-------------------|
    |-------------------|
    |-------------------|
    |-0-0-0-0-2-0-0-003-|
    |-0-0-0-0-2-0-0-003-|
    |-0-0-0-0-2-0-0-003-|…
  • Drop D Tuning - D, A, D, G, B, E
    
    
    Intro/Verse:
    
    |-----------------------|
    |-----------------------|
    |-----------------------|
    |-0--5-0--3---0-0-4-0-0-|
    |-0--5-0--3---0-0-4-0-0-|
    |-0--5-0--3---0-0-4-0-0-|
      Play x 5
    
    
    Chorus:
    
    |-----------------------------------------------------------------|
    |-3-3-3-3-3-3-3-3-3-3-3-3-3-3-3-3-3-3-3-3-3-3-3-3-3-3-3-3-3-3-0~~-|
    |-0-0-0-0-0-0-0-0-0-0-0-0-0-0-0-0-0-0-0-0-0-0-0-0-0-0-0-0-0-0-0~~-|
    |-3-3-3-3-3-3-3-3-3-3-3-3-3-3-3-3-3-3-3-3-3-3-3-3-3-3-3-3-3-3-3~~-|
    |-2-2-2-2-2-2-2-2-2-2-2-2-2-2-2-2-2-2-2-2-2-2-2-2-2-2-2-2-2-2-3~~-|
    |-3-3-3-3-3-3-3-3-3-3-3-3-3-3-3-3-3-3-3-3-3-3-3-3-3-3-3-3-3-3-3~~-|…
  • Drop D Tuning - D, A, D, G, B, E 
    
    
    Verse: 
    
    |---------------| 
    |---------------| 
    |---------------| 
    |-2-2-3-0-2-2-3-| 
    |-2-2-3-0-2-2-3-| 
    |-2-2-3-0-2-2-3-| 
      Play x 16 
    
    
    Chorus: 
    
    |-10-10-10-10-10-12-12-12-12-12-| 
    |-8--8--8--8--8--10-10-10-10-10-|…
  • Drop D Tuning - D, A, D, G, B, E
    
    
    Intro:
    
    |-6-6-6-6-6-6-6-6-6-6-6-6-|
    |-6-6-6-6-6-6-6-6-6-6-6-6-|
    |-5-5-5-5-5-5-5-5-5-5-5-5-|
    |-3-3-3-3-3-3-3-3-3-3-3-3-|
    |-3-3-3-3-3-3-3-3-3-3-3-3-|
    |-3-3-3-3-3-3-3-3-3-3-3-3-|
    
    
    Verse:…
  • Drop D Tuning - D, A, D, G, B, E 
     
    
    Intro: 
    
    |-------------|-------------------------| 
    |-------------|-------------------------| 
    |-------------|-------------------------| 
    |-5-5-5-5-5-5-|-5-5-5-5-5-5-5-5-5-5-5-5-| 
    |-5-5-5-5-5-5-|-7-7-7-7-7-7-5-5-5-5-5-5-|…
  • Drop D Tuning: D, A, D, G, B, E
    
    
    Intro:
    
    |---------------------------------|
    |------------0-0-0--0--0-0-0--0-0-|
    |------------0-0-0--0--0-0-0--0-0-|
    |-0-0-2-2-3--3-3-3--3--3-3-3--3-3-|
    |-0-0-2-2-3--3-3-3--3--3-3-3--3-3-|
    |-0-0-2-2-3--3-3-3--3--3-3-3--3-3-|…
  • Standard Tuning - E, A, D, G, B, E 
    
    
    |--------------|-----------------------| 
    |---10~~-8---6-|-3h5-3-5-6-------6-6-6-| 
    |---7~~~-----6-|---------------5-----5-| 
    |---8~~~-----5-|-------------5-------4-| 
    |-7----------x-|-----------5---------5-|…
  • Drop D Tuning: D, A, D, G, B, E
    
    
    Intro:
    
    |-----|---------------------------------------------------|
    |-----|---------------------------------------------------|
    |-----|---------------------------------------------------|
    |-2-3-|-0-2-3-0-2-3-0-2-3-0-2-3-0-2-3-0-2-3-0-2-3-0-2-2-3-|
    |-2-3-|-0-2-3-0-2-3-0-2-3-0-2-3-0-2-3-0-2-3-0-2-3-0-2-2-3-|
    |-2-3-|-0-2-3-0-2-3-0-2-3-0-2-3-0-2-3-0-2-3-0-2-3-0-2-2-3-|…
  • Drop D Tuning - D, A, D, G, B, E
    
    
    Intro/Verse:
            |                          1,2,3,4,5,6,7|             4|       8|
    |-------|--------------------------|------------|--------------|--------|
    |-------|--------------------------|------------|--------------|--------|
    |-------|--------------------------|------------|--------------|--------|
    |-0-0-9-|-0-0-9-0-0-0-9-0--0-0-9-0-|-9-10-0-0-9-|-9-12-0-0-9-0-|-10-0-0-|
    |-0-0-9-|-0-0-9-0-0-0-9-0--0-0-9-0-|-9-10-0-0-9-|-9-12-0-0-9-0-|-10-0-0-|
    |-0-0-9-|-0-0-9-0-0-0-9-0--0-0-9-0-|-9-10-0-0-9-|-9-12-0-0-9-0-|-10-0-0-|
    
    
    Chorus:
    
    |-----------------------------|
    |-----------------------------|
    |-----------------------------|
    |-0--3-0-4-4-4-0--3-0-3-4-4-|
    |-0--3-0-4-4-4-0--3-0-3-4-4-|
    |-0--3-0-4-4-4-0--3-0-3-4-4-|…
  • Tuning - Low to High - A, A, D, G, B, E
    
    
    Intro: 
    
    |----------------------------------|
    |----------------------------------|
    |----------0-----------0-------0---|
    |--|
    |--|
    |--|
      Play x 4
    
    
    Main Riff: 
    
    |-----------------------|--------------------------|-----------------------|
    |-----------------------|--------------------------|-----------------------|
    |-----------------------|--------------------------|-----------------------|
    |-----------------------|--------------------------|-----------------------|
    |-----------------------|--------------------------|-----------------------|
    |-0-0-0-/10-0-0-3^-0-3^-|-0-0-0-/10---0-0-3^-0-3h5-|-0-0-0-/10-0-0-3^-0-3^-|…
  • Drop D Tuning - D, A, D, G, B, E
    
    
    Intro:
                                    |                  1,3,5,7,9|   2,4,6,8,10|
    |-------------------------------|-------------|-------------|-------------|
    |-------------------------------|-------------|-------------|-------------|
    |-------------------------------|-------------|-------------|-------------|
    |-0-4-6-0-3-5-0-2-3-0-2-3-3---1-|-0-2-2-2-0-2-|-0-2-2-0-/10-|-0-2-2-0-5-6-|
    |-0-4-6-0-3-5-0-2-3-0-2-3-3---1-|-0-2-2-2-0-2-|-0-2-2-0-/10-|-0-2-2-0-5-6-|
    |-0-4-6-0-3-5-0-2-3-0-2-3-3---1-|-0-2-2-2-0-2-|-0-2-2-0-/10-|-0-2-2-0-5-6-|
    
    
    Chorus:…
  • Drop D Tuning
    
    
    Intro/Verse: 
    
    |------|---------------------|---------------|--------------------------| 
    |-BASS-|---------------------|-0-------------|--------------------------| 
    |------|---------------------|-0-------------|--------------------------|…
  • Standard Tuning: E A D G B E
    
    
    Verse:
    
    |----------------|
    |-BASS-AND-DRUMS-|
    |----------------|
    |----------------|
    |---THROUGHOUT---|
    |----------------|
    
    
    Chorus:
    
    |--------------|
    |--------------|
    |--------------|
    |-8--7--6---|
    |-8--7--6---|
    |-6--5--4---|…
  • Drop D Tuning - D, A, D, G, B, E
    
    
    Intro:
    
    |-------------------| 
    |-------------------|
    |-------------------|
    |-0-2-4-2-4-4-2-2-4-|
    |-0-2-4-2-4-4-2-2-4-|
    |-0-2-4-2-4-4-2-2-4-|
      Play x 8
    
    
    Verse:
     
    |-4-4-4-4-4-4-4-4-4-4-4-4-|
    |-7-7-7-7-7-7-7-7-7-7-7-7-|
    |-6-6-6-6-6-6-6-6-6-6-6-6-|
    |-4-4-4-4-4-4-4-4-4-4-4-4-|
    |-4-4-4-4-4-4-4-4-4-4-4-4-|
    |-4-4-4-4-4-4-4-4-4-4-4-4-|…
  • Drop D Tuning - D, A, D, G, B, E
    
    
    Intro:
    
    |------|-------------------------------|
    |------|-------------------------------|
    |-FADE-|-------------------------------|
    |------|-4---4---4---4---4---4-4-4-0-0-|
    |--IN--|-4---4---4---4---4---4-4-4-0-0-|
    |------|-4---4---4---4---4---4-4-4-0-0-|…
  • Drop D Tuning - D, A, D, G, B, E
    
    
    Intro:
    
    |------------|
    |------------|
    |------------|
    |------------|
    |-7-0-5-6--6-|
    |-7-0-5-6--6-|
      Play x 8
    
    
    Verse:
                                                   1,3|              2,4|
    |------------------------------------|------------|-----------------|
    |------------------------------------|------------|-----------------|
    |------------------------------------|------------|-----------------|
    |------------------------------------|------------|-----------------|
    |-4-2-4--4-2-4--4-2-4--2-4--2-4--2-4-|-4--0--2--4-|-4-0-0-5-0-0-6-0-|
    |-4-2-4--4-2-4--4-2-4--2-4--2-4--2-4-|-4--0--2--4-|-4-0-0-5-0-0-6-0-|
    
    
    Chorus:
    
    |------------------------------------|
    |------------------------------------|
    |------------------------------------|
    |------------------------------------|
    |-2-3-4-0-2-3-4-7--2--3-4-7-2-3-4-10-|
    |-2-3-4-0-2-3-4-7--2--3-4-7-2-3-4-10-|…
  • Standard Tuning: E, A, D, G, B, E
    
    
    Intro/Verse:
    
    |--------------------------------|----------------|
    |--------------------------------|------------0-0-|
    |--------------------------------|------------0-0-|
    |-7-/5-7-/5-/8-8--7-/5-7-/5-/8-8-|-7-/5-7-/5-/8-8-|
    |-7-/5-7-/5-/8-8--7-/5-7-/5-/8-8-|-7-/5-7-/5-/8-8-|
    |-5-/3-5-/3-/6-6--5-/3-5-/3-/6-6-|-5-/3-5-/3-/6-6-|…
  • Drop B Tuning - B, F#, B, E, G#, C#
    
    
    Intro:
      Guitar 1 PM Throughout
    |------------------|--------------------|------------------|-----------|
    |------------------|--------------------|------------------|-----------|
    |------------------|--------------------|------------------|-----------|
    |-0-0-3-0--0-3-0-3-|-0-0-0-3-0--0-3-0-3-|-0-0-3-0--0-3-0-3-|-0-0-0-3-0-|
    |-0-0-3-0--0-3-0-3-|-0-0-0-3-0--0-3-0-3-|-0-0-3-0--0-3-0-3-|-0-0-0-3-0-|
    |-0-0-3-0--0-3-0-3-|-0-0-0-3-0--0-3-0-3-|-0-0-3-0--0-3-0-3-|-0-0-0-3-0-|…
  • Drop D Tuning - D, A, D, G, B, E 
    
    
    Intro: 
                   1,3,5,7| 2,4,6,8| 
    |-----------|---------|--------| 
    |-----------|---------|--------| 
    |-----------|---------|--------| 
    |-0-0-0-2-3-|-0-0-2-3-|-5---/8-| 
    |-0-0-0-2-3-|-0-0-2-3-|-5---/8-|…
  • Drop D Tuning: D, A, D, G, B, E
    
    
    Verse:
    
    |------------------------|-----|------------------------|------------|
    |------------------------|-----|------------------------|------------|
    |------------------------|-0~~-|------------------------|------------|
    |-3--0—3-0---3-3-0-3-0-0-|-5~~-|-3--0-3-0---3-3-0-3-0-0-|-5--5--6--5-|
    |-3--0—3-0---3-3-0-3-0-0-|-4~~-|-3--0-3-0---3-3-0-3-0-0-|-4--4--6--5-|
    |-3--0—3-0---3-3-0-3-0-0-|-5~~-|-3--0-3-0---3-3-0-3-0-0-|-5--5--6--5-|…
  • Drop D Tuning: D, A, D, G, B, E
    
    
    Intro:
    
    |------|-----------------|-----------------|-----|
    |-BASS-|-----------------|-----------------|-----|
    |------|-----------------|-----------------|-----|
    |------|-2-2-2-3-3-3-5-5-|-2-2-2-3-3-3-5-5-|-0~~-|
    |-ONLY-|-2-2-2-3-3-3-5-5-|-2-2-2-3-3-3-5-5-|-0~~-|
    |------|-2-2-2-3-3-3-5-5-|-2-2-2-3-3-3-5-5-|-0~~-|
    |…
  • 6 - String Banjo Tuning - D, A, D, G, B, E
    
    
    Intro:
    
    |---------------------|---------------------|
    |---------------------|-------------8-------|
    |---7---10^---7---5h7-|---7---10^-------5h7-|
    |-0---0-----0---0-----|-0---0-----0---0-----|
    |---------------------|---------------------|
    |---------------------|---------------------|…
  • Drop D Tuning - D, A, D, G, B, E
    
    
    Intro:
    
    |---------------------------|-----|
    |---------------------------|-0~~-|
    |---------------------------|-0~~-|
    |---|-3~~-|
    |---|-3~~-|
    |---|-3~~-|
      Play x 8                  |
    
    
    Verse:
    
    |-----------------|
    |-----------------|
    |-----------------|
    |-0---8-8-8-8-8-8-|
    |-0---8-8-8-8-8-8-|
    |-0---8-8-8-8-8-8-|…
  • Standard Tuning - E, A, D, G, B, E
    
    Note - Pick scrape every single note in this song to create the weird noise the guitar makes.
    
    
    Intro/Verse:
    
    |---------------------------|
    |---------------------------|
    |---------------------------|
    |---------------------------|
    |-5-2-5-2-5-2-5-2-5-2-5-2-5-|
    |-3-0-3-0-3-0-3-0-3-0-3-0-3-|…
  • Drop D Tuning: D, A, D, G, B, E
     
    
    Intro:
    
    |-------------|
    |-------------|
    |-------------|
    |-2-x-x-2-x-x-|
    |-2-x-x-2-x-x-|
    |-2-x-x-2-x-x-|
      Play x 12
    
                   |    1,2,3,4,5,6|    7|
    |--------------|---------|-----|-----|
    |--------------|---------|-----|-----|
    |--------------|---------|-----|-----|
    |-3--3-0-3-4-3-|-0-3p0-3-|-4-3-|-4~~-|
    |-3--3-0-3-4-3-|-0-3p0-3-|-4-3-|-4~~-|
    |-3--3-0-3-4-3-|-0-3p0-3-|-4-3-|-4~~-|…
  • Standard Tuning - E, A, D, G, B, E
    
    
    Intro:
    
    |--------------------|
    |--------------------|
    |--------------------|
    |-111111111111-111111|
    |-111111111111-111111|
    |-9-9-9-9-9-9--9-9-9-|
      Play x 12
    
    
    Verse:
    
    |-------------------------------------------------------------------------|
    |-------------------------------------------------------------------------|
    |-101010101010101010101010101010101010101010101010101010111111111111111111|
    |-111111111111111111111111111111111111111111111111111111111111111111111111|
    |-111111111111111111111111111111111111111111111111111111111111111111111111|
    |-9-9-9-9-9-9-9-9-9-9-9-9-9-9-9-9-9-9-9-9-9-9-9-9-9-9-9-9-9-9-9-9-9-9-9-9-|…
  • Drop D Tuning - D, A, D, G, B, E
    
    
    Intro:
    
    |--------------------|--------------------------------------------------|
    |--------------------|--------------------------------------------------|
    |--------------------|--------------------------------------------------|
    |----------------0~~-|--------------------------------------------0-----|
    |-------2------0-----|-------2------------2------0-------2------0-----0-|
    |-0-3p0---3-/6-------|-0-3p0---3~~-0--3p0---3-/5---0-3p0---3-/6-----6---|
    
    |------------------------------------------------------------|
    |------------------------------------------------------------|
    |--------------------------------------------------------0~~-|
    |------------------------------------------------------------|
    |---0---0---0-------2------------2------0-------2------0-----|
    |-6---6---6---0-3p0---3~~-0--3p0---3-/5---0-3p0---3-/6-------|
    
    
    Verse:…
  • Standard Tuning - E, A, D, G, B, E
    
    
    Intro/Verse:
    
    |------------------|
    |------------------|
    |------------------|
    |-5-5------5-5-----|
    |-5-5---5-5--|
    |-3-3---3-3--|
      Play x 16
    
    
    Chorus:
    
    |----------------------------|
    |----------------------------|
    |----------------------------|
    |-5-5-7--5-5-7-5--5-7--5-5-7-|
    |-5-5-7--5-5-7-5--5-7--5-5-7-|
    |-3-3-5--3-3-5-3--3-5--3-3-5-|…
  • Drop D Tuning - D, A, D, G, B, E
    
    
    Intro:
    
    |-------7~~-|----------7~~---------7~~-------------7~~-|
    |-------7~~-|----------7~~---------7~~-------------7~~-|
    |-------6~~-|----------6~~---------6~~-------------6~~-|
    |-----------|------------------------------------------|
    |-----------|------------------------------------------|
    |--0-----|--0-------0-----------0-------|…
  • Standard Tuning: E, A, D, G, B, E
    
    
    Intro/Verse:
    
    |------------------------|
    |------------------------|
    |------------------------|
    |-7-7-7-4-4-4-5---7--5-7-|
    |-7-7-7-4-4-4-5---7--5-7-|
    |-5-5-5-2-2-2-3---5--3-5-|
      Play x…
  • Drop D Tuning: D, A, D, G, B, E
    
    
    Intro:
                                1,3,4|    2|
    |--------------------------|-----|-----|
    |--------------------------|-----|-----|
    |--------------------------|-----|-----|
    |-0--7-0-8--8-/10-1010/3-0-|-3-5-|-3-3-|
    |-0--7-0-6--6-/8--8-8-/3-0-|-3-5-|-3-3-|
    |-0--7-0-6--6-/8--8-8-/3-0-|-3-5-|-3-3-|
    
    
    Verse:
    
    |--------------------------|
    |--------------------------|
    |--------------------------|
    |-0--1--x-1h2--0--1--1h3-3-|
    |-0--1--x-1h2--0--1--1h3-3-|
    |-0--1--x-1h2--0--1--1h3-3-|…
  • Drop D Tuning - D, A, D, G, B, E
    
    
    Intro: 
                                                                        1|
    |------------------------------------------------------|-------------|
    |-1010101010101010101010101010101010101010101010101010-|-------------|
    |-1111111111111111111111111111111111111111111111111111-|-------------|
    |-9-9-9-9-9-9-9-9-9-9-9-9-9-9-9-9-9-9-9-9-9-9-9-9-9-9--|-7-7-7-7-7-7-|
    |-9-9-9-9-9-9-9-9-9-9-9-9-9-9-9-9-9-9-9-9-9-9-9-9-9-9--|-7-7-7-7-7-7-|
    |-9-9-9-9-9-9-9-9-9-9-9-9-9-9-9-9-9-9-9-9-9-9-9-9-9-9--|-7-7-7-7-7-7-|…
  • Drop D Tuning - D, A, D, G, B, E 
     
    
    Intro: 
    
    |-------------------------------------| 
    |-------------------------------------| 
    |-------------------------------------| 
    |-0-0-10-10-10-0---0-0-10-10-10-0-6-0-| 
    |-0-0-10-10-10-0---0-0-10-10-10-0-6-0-|…
  • Drop D Tuning: D, A, D, G, B, E
    
    
    Intro:
    
    |--------|-3-3-3-3-3-3-3-3-3-3-3-3-3-3-3-3-|
    |--------|-3-3-3-3-3-3-3-3-3-3-3-3-3-3-3-3-|
    |--------|-0-0-0-0-0-0-0-0-0-0-0-0-0-0-0-0-|
    |-~~-|-0-0-0-0-0-0-0-0-0-0-0-0-0-0-0-0-|
    |-~~-|---------------------------------|
    |-~~-|---------------------------------|…
  • Standard Tuning: E, A, D, G, B, E
    
    
    Intro/Verse:
    
    |------------------------------------------|
    |------------------------------------------|
    |------------------------------------------|
    |------------------------------------------|
    |-2-2-2-2-2-2-/8--8-2-2-2-2-2-2-2-2-9-8--8-|
    |-0-0-0-0-0-0-/6--6-0-0-0-0-0-0-0-0-7-6--6-|…
  • Drop D Tuning - D, A, D, G, B, E 
    
    
    Intro: 
    
    |---------------| 
    |---------------| 
    |---------------| 
    |-0-3-0-1h3p1-0-| 
    |-0-3-0-1h3p1-0-| 
    |-0-3-0-1h3p1-0-| 
    
    
    Verse: 
    
    |-----------------------------------------------|…
  • Drop D Tuning - D, A, D, G, B, E
    
    
    Intro/Verse:
    
    |--------------------------------|----------------|
    |--------------------------------|------------0-0-|
    |--------------------------------|------------0-0-|
    |-5-/3-5-/3-/6-6--5-/3-5-/3-/6-6-|-5-/3-5-/3-/6-6-|
    |-5-/3-5-/3-/6-6--5-/3-5-/3-/6-6-|-5-/3-5-/3-/6-6-|
    |-5-/3-5-/3-/6-6--5-/3-5-/3-/6-6-|-5-/3-5-/3-/6-6-|…
Наверх