Аккорды Hi-Fi - Седьмой лепесток

Добавлено: @romashka
Дата добавления: 06 Мая 2022г.
Рейтинг:
0.0
Просмотров: 18
Транспонировать - +
[Проигрыш]:
 Am/G Am/F# Am Am/G Am/F#

[Куплет 1]:

Am Am/G   Am/F#  
 Ароматы ванили, 
Am      Am/G    Am/F#
 Сладкой ваты клубы
Am    Am/G      Am/F# 
 Надо мной проплывают 
Am   Am/G    Am/F#
 Пропадая вдали
Am    Am/G   Am/F# 
 Заплетаются косы 
Am    Am/G    Am/F#
 Виноградной лозы
Am    Am/G Am/F#       
 Оставляя улыбку 
Am    Am/G   Am/F#
 И немного слезы
F              E
 И немного слезы

 [Припев]:
            F          
 А дождь на окнах рисует
E               Am 
 Напоминая о твоих поцелуях
Asus2       Am       
 Всё дело в том, 
              F
 Что дождь ничем не рискует
E                   Am      Am/B Am/C
 А я боюсь, что потерял тебя
Am/D     F 
 Я невозможно скучаю
E                    Am 
 Я очень болен, я почти умираю
Asus2     Am        F 
 А где-то ты и ничего не узнаешь
E                   Am
 И я боюсь, что потерял тебя

[Проигрыш]: 
Am/G Am/F# Am Am/G Am/F#

[Куплет 2]:

Am    Am/G    Am/F# 
 Ты по Малой Ордынке 
Am    Am/G   Am/F#
 По Крещатику я 
Am   Am/G     Am/F#  
 На весёлых картинках 
Am      Am/G    Am/F#
 Мы не находим себя 
Am    Am/G        Am/F# 
 Нам осталась в награду, 
Am       Am/G      Am/F#
 А может быть повезло 
Am   Am/G     Am/F#   
 Горы битого счастья, 
Am      Am/G    Am/F#
 Да седьмой лепесток
F                 E
 Да седьмой лепесток

[Припев]:
           F
А дождь на окнах рисует
E               Am 
 Напоминая о твоих поцелуях
Asus2       Am       
 Всё дело в том, 
              F
 Что дождь ничем не рискует
E                   Am      Am/B Am/C
 А я боюсь, что потерял тебя
Am/D     F 
 Я невозможно скучаю
E                    Am 
 Я очень болен, я почти умираю
Asus2     Am        F 
 А где-то ты и ничего не узнаешь
E                   Am
 И я боюсь, что потерял тебя
[Проигрыш]:
 Am/G Am/F# Am Am/G Am/F# 

Am          Am/G
1|--------------------0----| 
2|--1-----1-----------1----| 
3|-----2-----2-----2-----2-| 
4|-------------------------| 
5|--0----------------------| 
6|--------------3----------|

   Am/F#
1|--------------0----------| 
2|--------1-----------1----| 
3|-----2-----2-----2-----2-| 
4|-------------------------| 
5|-------------------------| 
6|--2----------------------|
   Am          Am/G
1|--------------------0----| 
2|--1-----1-----------1----| 
3|-----2-----2-----2-----2-| 
4|-------------------------| 
5|--0----------------------| 
6|--------------3----------|

   Am/F#
1|--------------0----------| 
2|--------1----------------| 
3|-----2-----2-------------| 
4|-------------------------| 
5|-------------------------| 
6|--2----------------------|

Перебор играть в куплетах.
В припеве бой на выбор.
Наверх