Аккорды HIM - Heartache Every Moment

Добавлено: @romashka
Дата добавления: 20 Августа 2015г.
Рейтинг:
0.0
Просмотров: 446
Транспонировать - +
Tuning: Standard

Intro:
1|-------------------|-------|
2|-------------------|-------|
3|----3---6--3-------|--3----|
4|-3--1---6--1----3--|--3----|
5|-3--1---4--1----3--|--1----|
6|-1--------------1--|-------|
  F5 Eb5 Db5 Eb5  F5    Eb5

Verse
1|-----------------------------
2|-----------------------------
3|-----6-----6-----6--3-----6--
4|--3--6--3--6--3--6--1--3--6--
5|--3--4--3--4--3--4--1--3--4--
6|--1-----1-----1--------1-----

Chorus
1|------------------------------------------------------------------
2|------------------------------------------------------------------
3|----3--6--3----6--3----6--3-----3------3-6-3----6--3-----6--3--3--
4|-3--1--6--1-3--6--1-3--6--1--3--1---3--1-6-1-3--6--1--3--6--1--1--
5|-3--1--4--1-3--4--1-3--4--1--3--1---3--1-4-1-3--4--1--3--4--1--1--
6|-1----------1-------1--------1------1--------1--------1-----------

Solo: ( the Chorus)

Bridge:
1|-------------------3---
2|-------------------4---
3|--6--3------3------3---
4|--6--1--3---1------1---
5|--4--1--3---1----------
6|--------1--------------


Song Formation:
Intro
Verse
Chorus
Verse
Chorus
Solo
Bridge
Chorus
Наверх