Аккорды HIM - Pretending

Добавлено: @romashka
Дата добавления: 20 Августа 2015г.
Рейтинг:
0.0
Просмотров: 507
Транспонировать - +
intro
e---------------------------0--------------------------------
b------2---------4---------0-0--------4-------2-------4------
g-------2---------4--------------------4----2--2-------4-----
d----2---2-----4---4-----6-----------4--4--2-2--2----4--4-4/6
a0-----------2--------/4--------4-2-------0-------2-------2/4
e------------------------------------------------------------

cont.
e------------------------------------------------------
b------------------------------------------------------
g------------------------------------------------------
d--2--2/4----2---2/4---4-2---------------------------9/
a4--4------4---4----------4-2--0h2p0--/5---/77777777-7/
e------------------------------------------------------

e---------------------------0-----------------------------
b------2---------4---------0-0--------4-------2-------4---
g-------2---------4--------------------4----2--2-------4--
d----2---2-----4---4-----6-----------4--4--2-2--2----4--4-
a0---------2----------/4--------4-2-------0-------2-------
e---------------------------------------------------------

cont.
e-----0----0----
b----0-0-4--0-4-
g---------4----4
d--6------------
a4--------------
e---------------

e---------------------------0--------------------------------
b------2---------4---------0-0--------4-------2-------4------
g-------2---------4--------------------4----2--2-------4-----
d----2---2-----4---4-----6-----------4--4--2-2--2----4--4-4/6
a0---------2----------/4--------4-2-------0-------2-------2/4
e------------------------------------------------------------

e------------------------------------------------------
b------------------------------------------------------
g------------------------------------------------------
d------------------------------------------------------
a--2--2/4----2---2/4---4-2---------------------------9/
e4--4------4---4----------4-2--0h2p0--/5---/77777777-7/

e---------------------------0-----------------------------
b------2---------4---------0-0--------4-------2-------4---
g-------2---------4--------------------4----2--2-------4--
d----2---2-----4---4-----6-----------4--4--2-2--2----4--4-
a0---------2----------/4--------4-2-------0-------2-------
e---------------------------------------------------------

cont.
e-----0----0----
b----0-0-4--0-4-
g---------4----4
d--6------------
a4--------------
e---------------

e---------------------------0-----------------------------
b------2---------4---------0-0--------4-------2-------4---
g-------2---------4--------------------4----2--2-------4--
d----2---2-----4---4-----6-----------4--4--2-2--2----4--4-
a0---------2----------/4--------4-2-------0-------2-------
e---------------------------------------------------------

cont.
e-----0----0----
b----0-0-4--0-4-
g---------4----4
d--6------------
a4--------------
e---------------

here's where the solo is, i don't know it so figure it out yourself or have
someone else do it. here's the stuff behind the solo

e--------------------------------------------------
b--------------------------------------------------
g2-----4-----6--6/4-----2----4--6668889991111119988
d2-----4-----6--6/4-----2----4--xxxxxxxxxx-x-x-xxxx
a0-----2-----4--4/2-----0----2--4446667779-9-9-7766
e--------------------------------------------------

e---------------------------0--------------------------------
b------2---------4---------0-0--------4-------2-------4------
g-------2---------4--------------------4----2--2-------4-----
d----2---2-----4---4-----6-----------4--4--2-2--2----4--4-4/6
a0---------2----------/4--------4-2-------0-------2-------2/4
e------------------------------------------------------------

pm--------------
e-----------------
b-----------------
g-----------------
d666666666666666-6/
a444444444444444-4/ do a giant slide down
e-----------------

e---------------------------0-----------------------------
b------2---------4---------0-0--------4-------2-------4---
g-------2---------4--------------------4----2--2-------4--
d----2---2-----4---4-----6-----------4--4--2-2--2----4--4-
a0---------2----------/4--------4-2-------0-------2-------
e---------------------------------------------------------

e-------------------
b-------------------
g6668889991111119988
dxxxxxxxxxx-x-x-xxxx
a4446667779-9-9-7766
e-------------------

e---------------------------0--------------------------------
b------2---------4---------0-0--------4-------2-------4------
g-------2---------4--------------------4----2--2-------4-----
d----2---2-----4---4-----6-----------4--4--2-2--2----4--4-4/6
a0---------2----------/4--------4-2-------0-------2-------2/4
e------------------------------------------------------------

lyrics
love is a flame that can't be tamed
and though we are it's willing prey
my darling
we are not the ones to blame
trust is a word all lovers know
the glorious art of stainging show
my darling
we are not the ones to blame
the more we have the more it hurts our hearts 
my baby
it always ends up in tears
so keep on pretending
that our heaven's worth the waiting keep on pretending
it's alright
so keep on pretending
it won't be the end of our craving
keep on pretending
it's alright
when doubts arise the game begins
the one we will never win
my baby
it always ends up in tears


Наверх