Аккорды Hirax - Destroy

Добавлено: @romashka
Дата добавления: 05 Ноября 2018г.
Рейтинг:
0.0
Просмотров: 5
Транспонировать - +
Key:

H = hammer on
P = pull off
/ = slide up
\ = slide down
-----------------------------------------------------------------------------

Tuning: E A D G

G|-------------------------------------------------------------------|
D|-------------------------------------------------------------------|
A|-7-77-----7-7-8---7-77-----7-7-5---7-77-----7-7-8---7-77-----7-7-5-|
E|------0-0--------------0-0--------------0-0--------------0-0-------|

G|-------------------------------------------------------------------|
D|-------------------------------------------------------------------|
A|-7-77-----7-7-8---7-77-----7-7-5---7-77-----7-7-8---7-77-----7-7-5-|
E|------0-0--------------0-0--------------0-0--------------0-0-------|

G|-------------------------------------------------------------------|
D|-------------------------------------------------------------------|
A|-7-7-7-8-7-7-7-5-7-7-7-8-7-7-7-5-7-7-7-8-7-7-7-5-7-7-7-8-7-7-7-5---|
E|-------------------------------------------------------------------|

G|-------------------------------------------------------------------|
D|-------------------------------------------------------------------|
A|-7-7-7-8-7-7-7-5-7-7-7-8-7-7-7-5-7-7-7-8-7-7-7-5-7-7-7-8-7-7-7-5---|
E|-------------------------------------------------------------------|

G|---------------------------------|
D|---------------------------------|
A|-7-777-8-7-777-5-7-777-8-7-777-5-|
E|---------------------------------|

G|-------------------------------------------------------------------|
D|-------------------------------------------------------------------|
A|-7-7-7-8-7-7-7-5-7-7-7-8-7-7-7-5-7-7-7-8-7-7-7-5-7-7-7-8-7-7-7-5---|
E|-------------------------------------------------------------------|

G|-------------------------------------------------------------------|
D|-------------------------------------------------------------------|
A|-7-7-7-8-7-7-7-5-7-7-7-8-7-7-7-5-7-7-7-8-7-7-7-5-7-7-7-8-7-7-7-5---|
E|-------------------------------------------------------------------|

G|---------------------------------|
D|---------------------------------|
A|-7-777-8-7-777-5-7-777-8-7-777-5-|
E|---------------------------------|

G|----------------------------------------------------------|
D|----------------------------------------------------------|
A|--7--9--10--12--7--9--10--12--7--9--10--12--7--9--10--12--|
E|----------------------------------------------------------|

G|-------------------------------------------------------------------|
D|-------------------------------------------------------------------|
A|-7-7-7-8-7-7-7-5-7-7-7-8-7-7-7-5-7-7-7-8-7-7-7-5-7-7-7-8-7-7-7-5---|
E|-------------------------------------------------------------------|

G|-------------------------------------------------------------------|
D|-------------------------------------------------------------------|
A|-7-7-7-8-7-7-7-5-7-7-7-8-7-7-7-5-7-7-7-8-7-7-7-5-7-7-7-8-7-7-7-5---|
E|-------------------------------------------------------------------|

G|---------------------------------|
D|---------------------------------|
A|-7-777-8-7-777-5-7-777-8-7-777-5-|
E|---------------------------------|

G|----------------------------------------------------------|
D|----------------------------------------------------------|
A|--7--9--10--12--7--9--10--12--7--9--10--12--7--9--10--12--|
E|----------------------------------------------------------|   
comments powered by Disqus
Наверх