Аккорды Hirax - Hate, Fear and Power

Добавлено: @romashka
Дата добавления: 05 Ноября 2018г.
Рейтинг:
0.0
Просмотров: 6
Транспонировать - +
.  - palm mute           /  - slide up to
\  - slide down to       ~  - vibrato
h  - hammer on           b  - Bend
p  - pull off            Suffixes for bend
t  - tap                 f  - full bend    h - half bend
ph - pinched harmonic    q  - quarter bend t - tap bend
*  - see comment         ^  - Hold bend    r release bend
x  - Stuccatto           ~  - vibrato bend
,  - slight palm mute    () - ghost note, sustained note
"  - tremolo note        <> - harmonic
pb - pre bend

Tuning E A D G B E


 Intro

 [------------------PM-------------------]
|------------------------------------------|
|------------------------------------------|
|------------------------------------------|
|------------------------------------------|
|---4-5-6-7---4-5-6-7---4-5-6-7---4-5-6-7--|
|-5---------5---------5---------5----------|

 [------------------PM-------------------]
|------------------------------------------|
|------------------------------------------|
|------------------------------------------|
|------------------------------------------|
|---5-6-7-8---5-6-7-8---5-6-7-8---5-6-7-8--|
|-6---------6---------6---------6----------|

 [------------------PM-------------------]
|------------------------------------------|
|------------------------------------------|
|------------------------------------------|
|------------------------------------------|
|---4-5-6-7---4-5-6-7---4-5-6-7---4-5-6-7--|
|-5---------5---------5---------5----------|

 [------------------PM-------------------]
|------------------------------------------|
|------------------------------------------|
|------------------------------------------|
|------------------------------------------|
|---5-6-8p7---5-6-8p7---5-6-8p7---5-6-8p7--|
|-6---------6---------6---------6----------|


   [--PM--]   [--PM--] [--PM--]        [--PM--]   [--PM--] [--PM--]
|-------------------------------------------------------------------|
|-------------------------------------------------------------------|
|-------------------------------------------------------------------|
|-2---------2---------2---------2-2-3-4---------4---------4---------|
|-2---------2---------2---------2-2-3-4---------4---------4---------|
|---0-0-0-0---0-0-0-0---0-0-0-0-----1-2-4-5-0-2-2-4-5-0-2-2-4-5-0-2-|

 Guitar 1
              [--PM--]   [--PM--] [--PM--]        
[----------------------------------------------------|
[----------------------------------------------------|
[----------------------------------------------------|
[-5\4/5\4---4---------4---------4---------5\4/5\4----|
[-3\2/3\2---4---------4---------4---------3\2/3\2----|
[---------3-2-4-5-0-2-2-4-5-0-2-2-4-5-0-2---------3--|
[Guitar 2
[----------------------------------------------------|
[----------------------------------------------------|
[----------------------------------------------------|
[-----------------------------------------5\4/5\4----|
[-----------4---------4---------4---------3\2/3\2----|
[-----------2---------2---------2-----------------3--|


 Main Riff

   [--PM--]   [--PM--] [--PM--]        
|------------------------------------------|
|------------------------------------------|
|------------------------------------------|
|-4---------4---------4---------5\4/5\4----|
|-4---------4---------4---------3\2/3\2----|
|-2-4-5-0-2-2-4-5-0-2-2-4-5-0-2---------3--| Rpt 2 X

 Rpt Main Riff 3 X for verse

 
   [--PM--]   [--PM--] [--PM--]        
|-------------------------------------------|
|-------------------------------------------|
|-------------------------------------------|
|-4---------4---------4---------5\4/5\4-----|
|-4---------4---------4---------3\2/3\2---4-|
|-2-4-5-0-2-2-4-5-0-2-2-4-5-0-2---------3-2-|
comments powered by Disqus
Наверх