Аккорды Hirax - The Last War

Добавлено: @romashka
Дата добавления: 05 Ноября 2018г.
Рейтинг:
0.0
Просмотров: 5
Транспонировать - +
Tuning: standard
Riff 1a (before the drums and bass enter)
e|---------------------------------------------------------------|
B|---------------------------------------------------------------|
G|---------------------------------------------------------------|
D|--------------2------------------------------------------------|
A|--------------2------------------------------------------------|
E|-0-1---0--1---0---000------------------------------------------|

Riff 1b
e|---------------------------------------------------------------|
B|---------------------------------------------------------------|
G|---------------------------------------------------------------|
D|-2-------------------------------------------------------------|
A|-2--------------3----------------------------------------------|
E|-0---00----0-1-----1--0----------------------------------------|

Riff 2
e|---------------------------------------------------------------|
B|---------------------------------------------------------------|
G|---------------------------------------------------------------|
D|-2----------------2-----------------2--------------------------|
A|-2--------5---3---2---------5---3---2--------------------------|
E|-0--000---3---1---0--000----3---1---0--------------------------|

Riff 3 (I would rather die...)
e|-----------------------------------------------------------------|
B|-----------------------------------------------------------------|
G|-----------------------------------------------------------------|
D|-----------------------------------------------------------------|
A|------------------------------5--3--2----------------------------|
E|-0h2-2222h3h2 2222-0h2-2222--------------------------------------|

Riff 4a (men in their fuckin suits...)
e|-----------------------------------------------------------------|
B|-----------------------------------------------------------------|
G|-----------------------------------------------------------------|
D|---------5\4-----------4/5---------------------------------------|
A|-4444----3\2---5\4-----2/3---4/5---------------------------------|
E|-2222----------3\2-----------2/3---------------------------------|

Riff 4b
e|---------------------------------------------------------------|
B|---------------------------------------------------------------|
G|---------------------------------------------------------------|
D|--------3-2----------2-3---------------------------------------|
A|-2222---1-0---3-2----0-1--2-3----------------------------------|
E|-0000---------1-0---------0-1----------------------------------|
Riff 5 (bodies all around me...)
e|---------------------------------------------------------------|
B|---------------------------------------------------------------|
G|---------------------------------------------------------------|
D|-------------------4------------3------------------------------|
A|-222--555--222-----4---222------3---222222---------------------|
E|-000--333--000-----2---000------1---000000---------------------|

Ok that's all, hope it helps some people out
| /  slide up
| \  slide down
| h  hammer-on
| p  pull-off
| ~  vibrato
| +  harmonic
| x  Mute note   
comments powered by Disqus
Наверх