Аккорды Hollywood Undead - Live Forever

Добавлено: @romashka
Дата добавления: 08 Августа 2016г.
Рейтинг:
0.0
Просмотров: 420
Транспонировать - +
Tuning: Standart D (DGCFAd)

INTRO:
Rhythm & Lead Guitar:
e|------------------------------------|
B|------------------------------------|
G|------------------------------------|
D|------------------------------------|
A|-----66666-----------66666---88866--|
E|--888-----44466666888-----444-------|
    ................................

Rhythm Guitar:
e|------------------------------------|
B|------------------------------------|
G|------------------------------------|
D|------------------------------------|
A|-----66666-----------66666---88866--|
E|--888-----44466666888-----444-------|
    ................................

Lead Guitar:
e|-----------------------------|
B|----11--10-------------------|
G|------------12--1012---------|
D|----------------------10810--|
A|-----------------------------|
E|-----------------------------|


VERSES:
Rhythm & Lead Guitar:
e|------------------------------------|
B|------------------------------------|
G|------------------------------------|
D|------------------------------------|
A|-----66666-----------66666---88866--|
E|--888-----44466666888-----444-------|
    ................................

PRE-CHORUS:
Rhythm & Lead Guitar:
e|-------------------------------------------------------|
B|-------------------------------------------------------|
G|-------------------------------------------------------|
D|-----------8888--------------------8888------10101010--|
A|--10101010-6666-6666-8888-10101010-6666-6666--8-8-8-8--|
E|---8-8-8-8------4444-6666--8-8-8-8------4444-----------|
    ........ .... .... .... ........ .... .... ........

e|-------------------------------------------------|
B|-------------------------------------------------|
G|-------------------------------------------------|
D|-----------8888--------------------8888------10--|
A|--10101010-6666-6666-8888-10101010-6666-6666--8--|
E|---8-8-8-8------4444-6666--8-8-8-8------4444-----|
    ........ .... .... .... ........ .... ....

CHORUS:

Rhythm & Lead Guitar:
e|----------------------------------------------------|
B|----------------------------------------------------|
G|--------8--888----------------8--888----10--101010--|
D|--10--108--8886--68--88810--108--8886--610--101010--|
A|--10--106--6666--68--88810--106--6666--6-8---8-8-8--|
E|---8---8------4--46--666-8---8------4--4------------|

SOLO:

Rhythm Guitar:
e|----------------------------------------------------|
B|----------------------------------------------------|
G|--------8--888----------------8--888----10--101010--|
D|--10--108--8886--68--88810--108--8886--610--101010--|
A|--10--106--6666--68--88810--106--6666--6-8---8-8-8--|
E|---8---8------4--46--666-8---8------4--4------------|

Lead Guitar:
e|---8-8-8-8-8-8-8-8--1515151515151515---|
B|--1111111111111111b-1818181818181818b--|
G|---------------------------------------|
D|---------------------------------------|
A|---------------------------------------|
E|---------------------------------------|

e|--13--11----10---8----|
B|--16b-14b---13b-11b---|
G|----------------------|
D|----------------------|
A|----------------------|
E|----------------------|
Наверх